Bto - Takin Care Of Buisness Chords & Tabs

 

Takin Care Of Buisness Chords & Tabs

Bto Chords & Tabs

Version: 1 Type: Tab 1 rating
1 star 2 stars 3 stars 4 stars 5 stars
comments

Takin Care Of Buisness Tab

   
                                           Takin Care of Buisness(BTO)
High E
E--------7---                  These are bar chords. Put the index finger across the fret indacated. Then 
B--------7----                 Then put the finger next to ur middle finger when you put the finger up on  
G-------7---                   the A and D strings 
D---7----9-----
A---7----9 ----
E-------7------
Low E
Play this 6 times like this Strum strum four quick strums after and the same with all the rest.
E--------5----
B--------5----
G--------5----
D----5----7----
A----5----7---
E--------5----

E-----10----
B-----10----
G-----10----
D----10--12----
A----10--12-----
E------10----
Then repeat all of this again
[ Tab from: http://www.guitartabs.cc/tabs/b/bto/takin_care_of_buisness_tab.html ]
Comments