Bse - Orange Its About Time Chords & Tabs

 

Orange Its About Time Chords & Tabs

Bse Chords & Tabs

Version: 1 Type: Tab 0 ratings
1 star 2 stars 3 stars 4 stars 5 stars
comments

Orange Its About Time Tab

   
song:orange(it's about time)
artist:B.S.E
album:N/A
tabbeb by:howie55

this is a very fun song to play. It is also very easy to learn
once you get the hang of it.

intro:PART 1
play this as Ken Presse yells out ay,ay,ay,ay,ay

e--------------------------------|
b--------------------------------|
g--------------------------------|
d--9---7---5---2-----------------|
a--9---7---5---2-----------------|
E--7---5---3---4-----------------|


PART 2:

e---------------------------------------------------|
b---------------------------------------------------|
g---------------------------------------------------|
d---9-9-9-9--7-7-7-7--5-5-5-5--4-4-4-4--------------|
a---9-9-9-9--7-7-7-7--5-5-5-5--4-4-4-4--------------|
E---7-7-7-7--5-5-5-5--3-3-3-3--2-2-2-2--------------|

This is the main riff of the song and you repeat four times before
the verse but each time is different. i just showed you the first
pattern. second time you go to a G5 instead of an f sharp and the
fourth time you do this

[ Tab from: http://www.guitartabs.cc/tabs/b/bse/orange_its_about_time_tab.html ]
e-----------------------------|
b-----------------------------|
g--5-5-5-5--7-7-7-7-----------|
d--5-5-5-5--7-7-7-7-----------|
a--3-3-3-3--5-5-5-5-----------|
E-----------------------------|


VERSE 1:mute in between chords

e--------------------------------|
a--------------------------------|
g--------------------------------|
d---9----7----5----4/7-----------|
b---9----7----5----4/7-----------|
e---7----5----3----2/5-----------|


chorus:


e--------------------------------------------------------|
a--------------------------------------------------------|
g--------11----------------------------------------------|
d-11-----11--(8x)11-------6-------9----------------------|
b-11-(8x)-9------11-(8x)--6-(8x)--9-(8x)-----------------|
E--9--------------9-------4-------7----------------------|

interlude: this is the fun part of the song

PART1:

e--------------------------------------|
a--------------------------------------|
g--------------------------------------|
d--9-9---7-7---5-5---4-/7--------------|
b--9-9---7-7---5-5---4-/7--------------|
E--7-7---5-5---3-3---2/-5--------------|


PART 2: using the same chords just use full strumming like
you use in the main riff.


well that is the whole song. if you have any questions or comments
e-mail me at howiesolman@hotmail.com
Comments