Bryan Adams - Summer Of 69 Chords & Tabs

 

Summer Of 69 Chords & Tabs

Bryan Adams Chords & Tabs

Version: 4 Type: Tab 0 ratings
1 star 2 stars 3 stars 4 stars 5 stars
comments

Summer Of 69 Tab

   
Artist: Bryan Adams
Title: Summer Of '69

Intro                                 Verse
                                       Riff A
   D                                    D
e|-2-----2---------|-----------------||-2-----2---------|-----------------|
B|-3-----3---------|-----------------||-3-----3---------|-----------------|
G|-2-2-2-2-2-2-2-2-|-2-2-2-2-2-2-2---||-2-2-2-2-2-2-2-2-|-2-2-2-2-2-2-2---|
D|-0-0-0-0-0-0-0-0-|-0-0-0-0-0-0-0---||-0-0-0-0-0-0-0-0-|-0-0-0-0-0-0-0---|
A|-----------------|---------------0-||-----------------|---------------0-|
E|-----------------|-----------------||-----------------|-----------------|
P.M. . .   . . . .   . . . . . . .        . .   . . . .   . . . . . . .

                           Riff A End
   A                                   D
e|-----------------|-----------------|-2-----2---------|-----------------|
B|-2-----2---------|-----------------|-3-----3---------|-----------------|
G|-2-----2---------|-----------------|-2-2-2-2-2-2-2-2-|-2-2-2-2-2-2-2---|
D|-2-2-2-2-2-2-2-2-|-2-2-2-2-2-2-2-0-|-0-0-0-0-0-0-0-0-|-0-0-0-0-0-0-0---|
A|-0-0-0-0-0-0-0-0-|-0-0-0-0-0-0-0-0-|-----------------|---------------0-|
E|-----------------|-----------------|-----------------|-----------------|
P.M. . .   . . . .   . . . . . . .       . .   . . . .   . . . . . . .

                                      Gtr. I Riff A (x2)
                                      Riff B                  Riff B End
   A                                    D                A
e|-----------------|-----------------||-2~~~~~~~~~~~~~-|----------------|
B|-2-----2---------|-----------------||-3~~~~~~~~~~~~~-|-2~~~~~~~~~~~~~-|
G|-2-----2---------|-----------------||-2~~~~~~~~~~~~~-|-2~~~~~~~~~~~~~-|
D|-2-2-2-2-2-2-2-2-|-2-2-2-2-2-2-2-0-||-0~~~~~~~~~~~~~-|-2~~~~~~~~~~~~~-|
A|-0-0-0-0-0-0-0-0-|-0-0-0-0-0-0-0-0-||----------------|-0~~~~~~~~~~~~~-|
E|-----------------|-----------------||----------------|----------------|
P.M. . .   . . . .   . . . . . . . 

                                     Pre-Chorus (Riff C)
                                     Gtr. II (Chords)
                                     Gtr. I  (Lead)
   D                A                Bm              A
e|-2~~~~~~~~~~~~~-|----------------||---------------|---------------|
B|-3~~~~~~~~~~~~~-|-2~~~~~~~~~~~~~-||----------3----|----------2----|
G|-2~~~~~~~~~~~~~-|-2~~~~~~~~~~~~~-||-------4-----4-|-------2-----2-|
D|-0~~~~~~~~~~~~~-|-2~~~~~~~~~~~~~-||----4----------|----2----------|
A|----------------|-0~~~~~~~~~~~~~-||-2-------------|-0-------------|
E|----------------|----------------||---------------|---------------|

   D               G               Bm              A
e|----------2----|----------3----|---------------|---------------|
B|-------3-----3-|-------------3-|----------3----|----------2----|
G|----2----------|-------0-------|-------4-----4-|-------2-----2-|
D|-0-------------|----0----------|----4----------|----2----------|
A|---------------|---------------|-2-------------|-0-------------|
E|---------------|-3-------------|---------------|---------------|

   D               G               Bm              A
e|----------2----|----------3----|---------------|---------------||
B|-------3-----3-|-------------3-|----------3----|-2~~~~~~~~~~~~-||
G|----2----------|-------0-------|-------4-----4-|-2~~~~~~~~~~~~-||
D|-0-------------|----0----------|----4----------|-2~~~~~~~~~~~~-||
A|---------------|---------------|-2-------------|-0~~~~~~~~~~~~-||
E|---------------|-3-------------|---------------|---------------||

Interlude  (Riff D)
Gtr. I
e|-12-------14-------15----|----14-------12--14--|
B|----15-------15-------15-|-------15------------|
G|-------14-------14-------|-14-------14---------|
D|-------------------------|---------------------|
A|-------------------------|---------------------|
E|-------------------------|---------------------|
 |
Gtr. II
 |
e|-0--------2--------3-----|----2--------0--2----|
B|----3--------3--------3--|-------3-------------|
G|-------2--------2--------|-2--------2----------|
D|-------------------------|---------------------|
A|-------------------------|------------------0--|
E|-------------------------|---------------------|

Gtr. I
e|-7------9------10----|---9-------7--9--|
B|---10-----10------10-|-----10----------|
G|------9------9-------|-9------9--------|
D|---------------------|-----------------|
A|---------------------|-----------------|
E|---------------------|-----------------|
 |
Gtr. II
 |
e|---------------------|-----------------|
B|-0-------2-------3---|----2------0-2---|
G|----2-------2------2-|------2----------|
D|-------2-------2-----|-2-------2-----0-|
A|---------------------|-----------------|
E|---------------------|-----------------|

Verse
[ Tab from: http://www.guitartabs.cc/tabs/b/bryan_adams/summer_of_69_tab_ver_4.html ]
Riff E                                                            Riff E End
   D                                   A
e|-2-----2---------|-----------------|-----------------|---------------3-3-|
B|-3-----3---------|-----------------|-2-----2---------|---------------3-3-|
G|-2-2-2-2-2-2-2-2-|-2-2-2-2-2-2-2---|-2-----2---------|---------------0-0-|
D|-0-0-0-0-0-0-0-0-|-0-0-0-0-0-0-0---|-2-2-2-2-2-2-2-2-|-2-2-2-2-2-2-2-0-0-|
A|-----------------|---------------0-|-0-0-0-0-0-0-0-0-|-0-0-0-0-0-0-0-----|
E|-----------------|-----------------|-----------------|-------------------|
P.M. . .   . . . .   . . . . . . .       . .   . . . .   . . . . . . .

Gtr. II (Play Riff A)

   D                                   A
e|-2-----2---------|-----------------|-----------------|---------------3-3-|
B|-3-----3---------|-----------------|-2-----2---------|---------------3-3-|
G|-2-2-2-2-2-2-2-2-|-2-2-2-2-2-2-2---|-2-----2---------|---------------0-0-|
D|-0-0-0-0-0-0-0-0-|-0-0-0-0-0-0-0---|-2-2-2-2-2-2-2-2-|-2-2-2-2-2-2-2-0-0-|
A|-----------------|---------------0-|-0-0-0-0-0-0-0-0-|-0-0-0-0-0-0-0-----|
E|-----------------|-----------------|-----------------|-------------------|
P.M. . .   . . . .   . . . . . . .       . .   . . . .   . . . . . . .

Pre-Chorus

   Bm              A               D               G                
e|---------------|---------------|----------2----|----------3----|
B|----------3----|----------2----|-------3-----3-|-------------3-|
G|-------4-----4-|-------2-----2-|----2----------|-------0-------|
D|----4----------|----2----------|-0-------------|----0----------|
A|-2-------------|-0-------------|---------------|---------------|
E|---------------|---------------|---------------|-3-------------|

   Bm              A               D               G                
e|---------------|---------------|----------2----|----------3----|
B|----------3----|----------2----|-------3-----3-|-------------3-|
G|-------4-----4-|-------2-----2-|----2----------|-------0-------|
D|----4----------|----2----------|-0-------------|----0----------|
A|-2-------------|-0-------------|---------------|---------------|
E|---------------|---------------|---------------|-3-------------|

e|---------------|---------------|
B|----------3----|-2~~~~~~~~~~~~-|
G|-------4-----4-|-2~~~~~~~~~~~~-|
D|----4----------|-2~~~~~~~~~~~~-|
A|-2-------------|-0~~~~~~~~~~~~-|
E|---------------|---------------|

Interlude  (Riff D)
Gtr. I
e|-12-------14-------15----|----14-------12--14--|
B|----15-------15-------15-|-------15------------|
G|-------14-------14-------|-14-------14---------|
D|-------------------------|---------------------|
A|-------------------------|---------------------|
E|-------------------------|---------------------|
 |
Gtr. II
 |
e|-0--------2--------3-----|----2--------0--2----|
B|----3--------3--------3--|-------3-------------|
G|-------2--------2--------|-2--------2----------|
D|-------------------------|---------------------|
A|-------------------------|------------------0--|
E|-------------------------|---------------------|

Gtr. I
e|-7------9------10----|---9-------7--9--|
B|---10-----10------10-|-----10----------|
G|------9------9-------|-9------9--------|
D|---------------------|-----------------|
A|---------------------|-----------------|
E|---------------------|-----------------|
 |
Gtr. II
 |
e|---------------------|-----------------|
B|-0-------2-------3---|----2------0-2---|
G|----2-------2------2-|------2----------|
D|-------2-------2-----|-2-------2-----0-|
A|---------------------|-----------------|
E|---------------------|-----------------|

Bridge

e|-----------|-----------|-----------|-----------|
B|-----------|-3---3---3/|/5---5---5-|-3---3---3-|
G|-2---2---2-|-3---3---3/|/5---5---5-|-3---3---3-|
D|-3---3---3-|-3---3---3/|/5---5---5-|-3---3---3-|
A|-3---3---3-|-1---1---1/|/3---3---3-|-5---5---5-|
E|-1---1---1-|-----------|-----------|-----------|

Pre-Chorus

   Bm              A               D               G                
e|---------------|---------------|----------2----|----------3----|
B|----------3----|----------2----|-------3-----3-|-------------3-|
G|-------4-----4-|-------2-----2-|----2----------|-------0-------|
D|----4----------|----2----------|-0-------------|----0----------|
A|-2-------------|-0-------------|---------------|---------------|
E|---------------|---------------|---------------|-3-------------|

   Bm              A               D               G                
e|---------------|---------------|----------2----|----------3----|
B|----------3----|----------2----|-------3-----3-|-------------3-|
G|-------4-----4-|-------2-----2-|----2----------|-------0-------|
D|----4----------|----2----------|-0-------------|----0----------|
A|-2-------------|-0-------------|---------------|---------------|
E|---------------|---------------|---------------|-3-------------|

e|---------------|---------------|
B|----------3----|-2~~~~~~~~~~~~-|
G|-------4-----4-|-2~~~~~~~~~~~~-|
D|----4----------|-2~~~~~~~~~~~~-|
A|-2-------------|-0~~~~~~~~~~~~-|
E|---------------|---------------|

Interlude  (Riff D)
Gtr. I
e|-12-------14-------15----|----14-------12--14--|
B|----15-------15-------15-|-------15------------|
G|-------14-------14-------|-14-------14---------|
D|-------------------------|---------------------|
A|-------------------------|---------------------|
E|-------------------------|---------------------|
 |
Gtr. II
 |
e|-0--------2--------3-----|----2--------0--2----|
B|----3--------3--------3--|-------3-------------|
G|-------2--------2--------|-2--------2----------|
D|-------------------------|---------------------|
A|-------------------------|------------------0--|
E|-------------------------|---------------------|

Continue until it fades out... enjoy!
Comments