Bryan Adams - Summer Of 69 Chords & Tabs

 

Summer Of 69 Chords & Tabs

Bryan Adams Chords & Tabs

Version: 2 Type: Bass Tab 0 ratings
1 star 2 stars 3 stars 4 stars 5 stars
comments

Summer Of 69 Bass Tab

   
+-------------------------------------------------------------------|
| Song: Summer Of '69                                               |
| Album: So Far So Good (1994)                                      |
| Tuning: D A D G                                                   |
| Tabbed by: vi3x (vi3x@libero.it)                          |
| Notes: Tune down the E string to D, or try to play it with the    |
|        high D string (The original version plays in low D though) |
+-------------------------------------------------------------------+

Bass enters - PRECHORUS ["...we'd never get far"]
G|--------|------------------------------------|
D|--------|------------------------------------|
A|-4-555/-|-2--2--0--0--0-4-5--5-------------0-|
D|--------|---------------------2-2-4-5--4-5---|

G|--------------------------------------|-------------|
D|---------------2--0--0----------------|-------------|
A|-2--2--0--0--0--0-------------------0-|-2--2--2--0~-|
D|-----------------------2-2-4-5--4-5---|-------------|
[ Tab from: http://www.guitartabs.cc/tabs/b/bryan_adams/summer_of_69_btab_ver_2.html ]
CHORUS
G|----------------------------------|
D|----------------------------------|
A|------------------0-0-0-0-0-0-0-0-|
D|-0-0-0-0-0-0-0-0/-----------------|

VERSE
G|-----------------------------------------------------|
D|-----------------------------------------------------|
A|-------------0--0--0--0-------------0--0--0--0/5-5-5-|
D|-0--0--0--0/------------0--0--0--0/------------------|

PRECHORUS 2
G|---------------------------------------|
D|---------------2--0--------------------|
A|-2--2--0--0--0--0----------------------|
D|---------------------2-2-4-5--5h4p5-7--|

G|----------------------------------------|------------------|
D|------------2h4p2-0--0------------------|------------------|
A|-2--2--0--0-----------------------------|-2--2--0~----12\0-|
D|-----------------------2-2-4-5--5h7p5-7-|------------------|

VERSE

BRIDGE
G|--------------------------|---------|
D|--------------------------|---------|
A|---------1--1--1--3--3--3-|-1--1--1-|
D|-3--3--3------------------|---------|

G|--------------------------|---------|
D|--------------------------|---------|
A|---------1--1--1--3--3--3-|-/15\----|
D|-3--3--3------------------|---------|

VERSE
CHORUS 2
VERSE

/: slide up
\: slide down
h: hammer on
p: pull off
~: let ring
Comments