Bryan Adams - Run To You Chords & Tabs

 

Run To You Chords & Tabs

Bryan Adams Chords & Tabs

Version: 5 Type: Tab 0 ratings
1 star 2 stars 3 stars 4 stars 5 stars
comments

Run To You Tab

   
Song:Run to you
Artist:Bryan Adams
Album:Reckless
Tabbed by:Samuel Smith

This is a fairly simple tune that has a good sound, the solo is real easy and if you
just keep the beat through the song it sounds really good. Put the
tone up on high and the pickups on lead.

Verse and Intro:

|---------------------------------------|
|---------------------------------------|
|---------------------------------------|
|------0------0-----------0------0------|
|----2------2------2----2------4---4----|
|--0------0------0----3------5-------5--|

       Reapeat until the build

Build:
[ Tab from: http://www.guitartabs.cc/tabs/b/bryan_adams/run_to_you_tab_ver_5.html ]
|-----------------------------------------------|
|-----------------------------------------------|
|-----------------------------------------------|
|---7----------------9----------------------6---|
|---5----------------7----------------------4---|
|---5----------------7----------------------4---|
When it gets to much I need to feel your touch

Chorus:

Each chord is one beat

Em G D A

Repeat 2 times

Solo:

|--7-6-------5-4------3-2---------5-4-------|
|------7---------5--------3-----------5-----|
|--------6---------4---------2----------4---|
|-------------------------------------------|
|-------------------------------------------|
|-------------------------------------------|

Repeat 2 times then back to the Chorus
Comments