Bryan Adams - Run To You Chords & Tabs

 

Run To You Chords & Tabs

Bryan Adams Chords & Tabs

Version: 2 Type: Bass Tab 0 ratings
1 star 2 stars 3 stars 4 stars 5 stars
comments

Run To You Bass Tab

This is my first Tab as "Chestaufissen". I made this one by using the original Bass Tab
and some other unregistered Tabs. Oh I don't have a Bass Guitar so I did this on Guitar
and I don't know it would sound like on a Bass and I like to play along with the guitar
sometimes. 

Intro
|------------|-----------|-----------|------------|
|------------|-----------|-----------|------------|
|------------|-2---------|-----------|------------| X3
|--2~--2-4-5-|---5--4--2~|-2--4--5---|-0--5--4--2~|

When he says "Oh! but her love is cold" play
|------------|-----------|-----------|------------|
|------------|-----------|-----------|------------|
|------------|-----------|-----------|--2~--------|
|-2~--4--5---|-0--5-4--2~|-2~--4--5--|------------|

[ Tab from: http://www.guitartabs.cc/tabs/b/bryan_adams/run_to_you_btab_ver_2.html ]
Prechorus
|-----------------|-----------------|-----------------|
|-----------------|-----------------|-----------------|
|-5-5-5-5-5-5-5-5-|-5-5-5-5-5-5-5-5-|-7-7-7-7-7-7-7-7-|
|-----------------|-----------------|-----------------|

|--------------------|
|--------------------|
|-7-7-7-5-4-0-7-5-4-0|
|--------------------|

Chorus
|-----------------|
|-----------------|
|-----------------|
|-333--66--11--88-|

Intro X3

The "Oh but her love" part is played when he says "I know her love is true"

Prechorus and Chorus

Bridge, I play the little Guitar solo like this.
|----------|---------|---------|---------|
|-9/10-----|-7/8-----|-5/6-----|-7/8-----|
|------9---|-----7---|-----5---|-----7---| 
|--------9-|-------7-|-------5-|-------7-|
                                           Repeat one more time after the first time

Again the Guitar Solo thingy
|--------------|----------------|
|--------------|----------------|
|-33-66-11--888|-33-66-11111111-|
|--------------|----------------|

and then end with the Chorus.
Comments