Bryan Adams - Please Forgive Me Chords & Tabs

 

Please Forgive Me Chords & Tabs

Bryan Adams Chords & Tabs

Version: 3 Type: Tab 0 ratings
1 star 2 stars 3 stars 4 stars 5 stars
comments

Please Forgive Me Tab

			Bryan Adams - Please Forgive me
			   Author: Anze Vodovnik
			   Album: So far so good
			   
Listen to the song for timing. I've tried to incorporate it into tab by using
spaces but it's not easy.

p = pull off
h = hammer on
/,\ = slide up, slide down
b = bend (listen for the number of steps to bend up)
~ = slight vibrato on the note

e|--------------------------------------------------------------------------|
b|-----14~-14---------------------------------------------------------------|
g|------------16p14h16-16 16/18/16 16p14-------------------16/18/16-14-16/18|
d|--------------------------------------h16--14p16h14-p16-------------------|
a|--------------------------------------------------------------------------|
e|--------------------------------------------------------------------------|

0:48				                 (... love you longer) 1:03
e|--------------------------------------------------------------------------|
b|-------------------------------------h14----------------------------------|
g|---h14h16p14h16/18-----------------16----16~-----------------h16/18p16/14-|
d|--------------------------------------------16----------------------------|
a|--------------------------------------------------------------------------|
e|--------------------------------------------------------------------------|

2:10
e|--------------------------------------------------------------------------|
b|-----14~-14---------------------------------------------------------------|
g|------------16p14h16-16 16/18\16 16p14-------------------16/18------------|
d|--------------------------------------h16--14p16h14-p16-------------------|
a|--------------------------------------------------------------------------|
e|--------------------------------------------------------------------------|
[ Tab from: http://www.guitartabs.cc/tabs/b/bryan_adams/please_forgive_me_tab_ver_3.html ]
2:47							(remember you yeah)
e|--------------------------------------------------------------------------|
b|-------------------------------------h14----------------------------------|
g|---h14h16p14h16/18-----------------16----16~-----------------h16/18p16\14-|
d|--------------------------------------------16----------------------------|
a|--------------------------------------------------------------------------|
e|--------------------------------------------------------------------------|

   whole bar is palm muted
e|--------------------------------------------------------------------------|
b|--------------------------------------------------------------------------|
g|--------------------------------16/18\16----------------------------------|
d|--14p16h14-p16----14p16h14-p16--------------------------------------------|
a|--------------------------------------------------------------------------|
e|--------------------------------------------------------------------------|

Solo:
e|--------------------------------------------------------------------------|
b|-----12b-10-12------10h12-12p10-12/14-12\10-15b-12b-10-12------10h12------|
g|---------------9h11---------------------------------------9h11------------|
d|--------------------------------------------------------------------------|
a|--------------------------------------------------------------------------|
e|--------------------------------------------------------------------------|

e|--------------------------------------------------------------------------|
b|---12/14-17-17/20-20-17-15-14-15-14----12---------------------------------|
g|--------------------------------------------------------------------------|
d|--------------------------------------------------------------------------|
a|--------------------------------------------------------------------------|
e|--------------------------------------------------------------------------|
Comments