Bryan Adams - Here I Am Chords & Tabs

 

Here I Am Chords & Tabs

Bryan Adams Chords & Tabs

Version: 2 Type: Chords 0 ratings
1 star 2 stars 3 stars 4 stars 5 stars
comments

Here I Am Chords

   
----------------------------------------------------------------------------
			     HERE I AM - Bryan Adams
----------------------------------------------------------------------------
Tabbed by:DJ_Inferno2000
Email:DJ_Inferno2000@hotmail.com

super song from Spirit: Stallion of the Cimarron.
Note: The chords are in regard to the capo and the tabs are not so D actually is D#.
But in the tabs 12 is still 12.



Tuning: capo 1st, e B G D A e

Riff 1
e|------5----2-2----------------------|
B|----3----3-----5-3-2----------------|
G|--4-----4------------4--------------|  
D|------------------------------------|
A|-2----------------------------------|
E|------------------------------------|
  
Riff 2
e|-------------------------------|
B|--3-----2-----2--5-------------|
G|----4-----3--------------------|   
D|------2-----4------------------|
A|-2-----------------------------|
E|-------------------------------|


Verse

        D
Here i am
        A
This is me
                  G                      D
Theres no where else on earth i'd rather be
        G
Here i am
                 D
Its just me and you
   C                              A  
Tonight we make our dreams come true
[ Tab from: http://www.guitartabs.cc/tabs/b/bryan_adams/here_i_am_crd_ver_2.html ]
CHORUS
       Bm    G
Its a new world
       D    A
Its a new start
      Bm             G         D      A
Its alive with the beating of young hearts
       Bm   G
Its a new day
       D    A
Its a new plan
             Bm        G (single strum,let sustain till end of next line) 
I've been waiting for you
   
Here i am

Riff 1 part 1 and 2

next verse is the same as previous one

Verse 2

Here we are 
We've just begun
And after all this time our time has gone
Yeah Here we are
Still going strong 
Right here in the place where we belong

[CHORUS]

[SOLO]
e|-12-14-12-----------------|
B|--------------------------|
G|--------------------------|  x15 times
D|--------------------------|
A|--------------------------|
E|--------------------------|

e|---16b~~~~~~~~~~~~~~~~~/12-|
B|-----------------------/12-|
G|---------------------------|
D|---------------------------|
A|---------------------------|
E|---------------------------|

e|-12----12----12-12/14-14-14-14-12---------|
B|----12----12----12-14-14-14-14-12---------|
G|------------------------------------------|
D|------------------------------------------|
A|------------------------------------------|
E|------------------------------------------|

e|-7-7--7-7-7--9-9--9-9-9---|
B|-7-7--7-7-7--9-9--9-9-9---|
G|--------------------------|
D|--------------------------|
A|--------------------------|
E|--------------------------|

e|-7-7/9-9/7-7/9-9--7-7-7-7-7----|
B|-7-7/9-9/7-7/9-9--7-7-7-7-7----|
G|-------------------------------|
D|-------------------------------|
A|-------------------------------|
E|-------------------------------|

e|-0-0-0-0--0-0-0-0---------|
B|-5/7-7/5--5-7/9/7---------|
G|--------------------------|
D|--------------------------|
A|--------------------------|
E|--------------------------|

e|-4-4-4-5-4-5-4-5----------|
B|-5-5-5-5-5-5-5-5----------|
G|--------------------------|
D|--------------------------|
A|--------------------------|
E|--------------------------|



[CHORUS]

fade out...
Comments