Brutal Beings - Drowning Chords & Tabs

 

Drowning Chords & Tabs

Brutal Beings Chords & Tabs

Version: 1 Type: Tab 0 ratings
1 star 2 stars 3 stars 4 stars 5 stars
comments

Drowning Tab

This Band is new and i think should be added to the Database



 E--------------------------------------------------------------------------
 B---------3-3-3-3-3-----------3-3--3--3-3----------------------------------
 G--1--1---2-2-2-2-2----1-1----0-0--0--0-0----------------------------------
 D--2--2---0-0-0-0-0----2-2----0-0--0--0-0----X 6---------------------------
 A--2--2---X------------2-2----2-2--2--2-2----------------------------------
 E---------X-------------------3-3--3--3-3----------------------------------
(That was the Verse)
[ Tab from: http://www.guitartabs.cc/tabs/b/brutal_beings/drowning_tab.html ]
Chorus

---------------------------------------------------
-------------------------------------------------------
--1-1---3-3-3--1-1--1-1-1---------1-1---5-5-5-5-----------
--2-2---3-5-5--2-2--1-3-3--X 2----2-2---5-5 5-5--------------
--2-2---5-5-5--2-2--3-3-3---------2-2---7-7-7-7----------
-------------------------------------------------------
Do this 10 times throughout the song and u have it

Thats brutal beingz First song

Its Impossible to find cuz this band has not been booked yet

for the song Email me at Italiapimp214@netscape.net
Comments