Bruno Mars - The Lazy Song Chords & Tabs

 

Bruno Mars Chords & Tabs

Version: 1 Type: Tab 0 ratings
1 star 2 stars 3 stars 4 stars 5 stars
comments

The Lazy Song Tab

-------------------------------------------------------------------------------
                 The Lazy Song - Bruno Mars
-------------------------------------------------------------------------------
Tabbed by:Jhustyne Balunsat
Email:jbrother1995@yahoo.com



e|----------------------------------------|
B|-----5-x-5-----9-x-9-----7-x-7-x-7-x-7--|
G|-----6-x-6-----9-x-9-----7-x-7-x-7-x-7--|
D|-----7-x-7-----9-x-9-----7-x-7-x-7-x-7--|(3x)
A|-----7-x-7-----7-x-7-----5-x-5-x-5-x-5--|
E|--5--5-x-5--7--7-x-7--5--5-x-5-x-5-x-5--|

e|--------------------------------------|
B|-----5-x-5-----6-x-6-----7-x-7-7-\-3--|
G|-----6-x-6-----6-x-6-----7-x-7-7-\-3--|
D|-----7-x-7-----6-x-6-----7-x-7-7-\-3--|
A|-----7-x-7-----4-x-4-----5-x-5-5-\-1--|
E|--5--5-x-5--4--4-x-4--5--5-x-5-5-\-1--|


e|----------------------------------------|
B|-----5-x-5-----9-x-9-----7-x-7-x-7-x-7--|
G|-----6-x-6-----9-x-9-----7-x-7-x-7-x-7--|
D|-----7-x-7-----9-x-9-----7-x-7-x-7-x-7--|(4x)
A|-----7-x-7-----7-x-7-----5-x-5-x-5-x-5--|
E|--5--5-x-5--7--7-x-7--5--5-x-5-x-5-x-5--|


e|-------------------------------------------|
B|--7-5-----3-x-3-----5-x-5-----7-x-7-x-7-~--|
G|--7-6-----4-x-4-----6-x-6-----7-x-7-x-7-~--|
D|--7-6-----4-x-4-----6-x-6-----7-x-7-x-7-~--|
A|--5-4-----2-x-2-----4-x-4-----5-x-5-x-5-~--|
E|--5-4--2--2-x-2--4--4-x-4--5--5-x-5-x-5-~--|


e|---------------------------------------|
B|-----5-x-5-----9-x-9----7-x-7-x-7-x-7--|
G|-----6-x-6-----9-x-9----7-x-7-x-7-x-7--|
D|-----7-x-7-----9-x-9----7-x-7-x-7-x-7--|(3x)
A|-----7-x-7-----7-x-7----5-x-5-x-5-x-5--|
E|--5--5-x-5--7--7-x-7--5-5-x-5-x-5-x-5--|

e|-----------------------------------|
B|-----5-x-5-----6-x-6----7-x-7-7-x--|
G|-----6-x-6-----6-x-6----7-x-7-7-x--|
D|-----7-x-7-----6-x-6----7-x-7-7-x--|
A|-----7-x-7-----4-x-4----5-x-5-5-x--|
E|--5--5-x-5--4--4-x-4--5-5-x-5-5-x--|


e|---------------------------------------|
B|-----5-x-5-----9-x-9----7-x-7-x-7-x-7--|
G|-----6-x-6-----9-x-9----7-x-7-x-7-x-7--|
D|-----7-x-7-----9-x-9----7-x-7-x-7-x-7--|(2x)
A|-----7-x-7-----7-x-7----5-x-5-x-5-x-5--|
E|--5--5-x-5--7--7-x-7--5-5-x-5-x-5-x-5--|

[ Tab from: http://www.guitartabs.cc/tabs/b/bruno_mars/the_lazy_song_tab.html ]
e|----------------------------------------|
B|-----5-x-5-----9-x-9-----7-x-7-x-7-x-7--|
G|-----6-x-6-----9-x-9-----7-x-7-x-7-x-7--|
D|-----7-x-7-----9-x-9-----7-x-7-x-7-x-7--|(4x)
A|-----7-x-7-----7-x-7-----5-x-5-x-5-x-5--|
E|--5--5-x-5--7--7-x-7--5--5-x-5-x-5-x-5--|


e|---------------------------------------|
B|-----5-x-5-----9-x-9----7-x-7-x-7-x-7--|
G|-----6-x-6-----9-x-9----7-x-7-x-7-x-7--|
D|-----7-x-7-----9-x-9----7-x-7-x-7-x-7--|(3x)
A|-----7-x-7-----7-x-7----5-x-5-x-5-x-5--|
E|--5--5-x-5--7--7-x-7--5-5-x-5-x-5-x-5--|

e|-----------------------------------|
B|-----5-x-5-----6-x-6----7-x-7-7-x--|
G|-----6-x-6-----6-x-6----7-x-7-7-x--|
D|-----7-x-7-----6-x-6----7-x-7-7-x--|
A|-----7-x-7-----4-x-4----5-x-5-5-x--|
E|--5--5-x-5--4--4-x-4--5-5-x-5-5-x--|


e|-------------------------------------------------------------------------|
B|-----3-x-3-----5-x-5-----7-x-7-x-7-x-7-----5-x-5-----6-x-6-----7-x-7-7-x-|
G|-----4-x-4-----6-x-6-----7-x-7-x-7-x-7-----6-x-6-----6-x-6-----7-x-7-7-x-|(2x)
D|-----4-x-4-----6-x-6-----7-x-7-x-7-x-7-----7-x-7-----6-x-6-----7-x-7-7-x-|
A|-----2-x-2-----4-x-4-----5-x-5-x-5-x-5-----7-x-7-----4-x-4-----5-x-5-5-x-|
E|--2--2-x-2--4--4-x-4--5--5-x-5-x-5-x-5--5--5-x-5--4--4-x-4--5--5-x-5-5-x-|


e|----------------------------------------|
B|-----5-x-5-----9-x-9-----7-x-7-x-7-x-7--|
G|-----6-x-6-----9-x-9-----7-x-7-x-7-x-7--|
D|-----7-x-7-----9-x-9-----7-x-7-x-7-x-7--|(3x)
A|-----7-x-7-----7-x-7-----5-x-5-x-5-x-5--|
E|--5--5-x-5--7--7-x-7--5--5-x-5-x-5-x-5--|

e|-----------------------------------|
B|-----5-x-5-----6-x-6-----7-x-7-7-x-|
G|-----6-x-6-----6-x-6-----7-x-7-7-x-|
D|-----7-x-7-----6-x-6-----7-x-7-7-x-|
A|-----7-x-7-----4-x-4-----5-x-5-5-x-|
E|--5--5-x-5--4--4-x-4--5--5-x-5-5-x-|


e|----------------------------------------|
B|-----5-x-5-----9-x-9----7-x-7-x-7--x-7--|
G|-----6-x-6-----9-x-9----7-x-7-x-7--x-7--|
D|-----7-x-7-----9-x-9----7-x-7-x-7--x-7--|(2x)
A|-----7-x-7-----7-x-7----5-x-5-x-5--x-5--|
E|--5--5-x-5--7--7-x-7--5-5-x-5-x-5--x-5--|

************************************
| /   slide down
| ~   vibrato
| x   Mute note
************************************
Comments