Bruno Mars - Rest Of My Life Chords & Tabs

 

Bruno Mars Chords & Tabs

Version: 1 Type: Tab 0 ratings
1 star 2 stars 3 stars 4 stars 5 stars
comments

Rest Of My Life Tab

   
Standard Tuning
---------------
Verse(s)
F       Gmin?    C
|-------|--------|--------|
|-1-----|-3------|-5------|
|-2--x4-|-3---x4-|-5---x4-|
|-------|--------|--------|   x2
|-------|--------|---3----|
|---1---|---3----|--------|

--------------------------------------

Pre-Chorus
A       Dmin?    g       C
|-------|--------|--------|---------|
|-5-----|-6------|-3------|-5-------|
|-6--x4-|-7---x4-|-3---x4-|-5---x4--|
|-------|--------|--------|---------|
|-------|---5----|---3----|---3-----|
|---5---|--------|--------|---------|

---------------------------------------
[ Tab from: http://www.guitartabs.cc/tabs/b/bruno_mars/rest_of_my_life_tab.html ]
Chorus
Dmin?   C        A          
|--------|--------|--------|
|-6------|-5------|-5------|
|-7---x4-|-5---x4-|-6---x4-|
|--------|--------|--------|
|---5----|---3----|--------|
|--------|--------|---5----|

Dmin?    C        
|--------|--------|
|-6------|-5------|
|-7---x2-|-5---x2-|   X2
|--------|--------|
|---5----|---3----|
|--------|--------|

Then
A#       A        g        C            F
|--------|--------|--------|--------|---|--------|
|-6------|-5------|-3------|-5------|---|-1------|
|-7------|-6------|-3------|-5---x2-|---|-2---x4-|
|--------|--------|--------|--------|---|--------|
|--------|--------|--------|---3----|-3-|--------|
|-6------|-5------|-3------|--------|---|---1----|
Pro-.....mise to..love u...rest of......life.


-Outro is the same as the intro, just fade out.


This is my first tab, hope you like it.
Don't forget to add your personal style for the fill-ins and what not.
Comments