Bruno Mars - Locked Out Of Heaven Chords & Tabs

 

Bruno Mars Chords & Tabs

Version: 1 Type: Bass Tab 0 ratings
1 star 2 stars 3 stars 4 stars 5 stars
comments

Locked Out Of Heaven Bass Tab

Bruno Mars - Locked out of Heaven Bass Tab


You can find a video for this tab being played here...

http://www.youtube.com/watch?v=Dx8JCcW0zuM


Main Riff

G|-------------------------------------------|
D|-------------------------------------------|
A|-3-5---3h5-3-------------------------------|
E|-------------5-6---5h6-5-1-3--33-3--33-3---|


If you have a 5 String, you can make your life easier by playing it like this...

G|-------------------------------------------|
D|-------------------------------------------|
A|-3-5---3h5-3-------------------------------|
E|-------------5-6---5h6-5---3--33-3--33-3---|
B|-------------------------6-----------------|


Pre - Chorus

G|-------------------------------------------------------------------|
D|-------------------------------------5h7-----5h7-----5h7-----5h7---|
A|-------------------------------------------------------------------|
E|-1-1-1-1-1-1-1-1-1-1-1-1-1-1-1-1-5-5-----5-5-----5-5-----5-5-------|


Chorus
[ Tab from: http://www.guitartabs.cc/tabs/b/bruno_mars/locked_out_of_heaven_btab.html ]
G|---------------------------------------------------------------------------|
D|---------------------------------------------------------------------------|
A|---------------------------------------------------------------------------|
E|-66666666-66666666-33333333-33333333-11111111-11111111-88888888-88888888---|


Breakdown (Quite bit)Same as Chorus but Just the 1st note...

G|-------------------------------------------|
D|-------------------------------------------|
A|-------------------------------------------|
E|--6---------3-----------1-----------8------|


***NOTE***

If you Came here linked from the video I made for this tab, The Chorus is played like 
this instead...


G|---------------------------------------------------------------------------|
D|---------------------------------------------------------------------------|
A|-------------------55555555-55555555---------------------------------------|
E|-66666666-66666666-------------------11111111-11111111-55555555-55555555---|


Awesome Song, Hope you have as much fun playing it as I do :)

http://www.facebook.com/HarryHopkinsonBass
Comments