Bruno Mars - Just The Way You Are Chords & Tabs

 

Just The Way You Are Chords & Tabs

Bruno Mars Chords & Tabs

Version: 2 Type: Bass Tab

Just The Way You Are Bass Tab

   
-------------------------------------------------------------------------------
			     JUST THE WAY YOU ARE - Bruno Mars
-------------------------------------------------------------------------------

Tabbed By : n00bzilla99
Tuning: Standard

Verse 1 (Start after "I tell her every day, Yeah...")
G|-----------------------------------------------------|
D|---------3~---------0~-------------------------------|
A|--------------------------------1~---------3~--------|
E|-----------------------------------------------------|

Chorus (1's not 11's)
G|-----------------------------------------------------------------|
D|33333333333333330000000000000000---------------------------------|
A|--------------------------------11111111111111113333333333333333-|  x2
E|-----------------------------------------------------------------|
[ Tab from: http://www.guitartabs.cc/tabs/b/bruno_mars/just_the_way_you_are_btab_ver_2.html ]
Verse 2
G|-----------------------------------------------------------------|
D|-3-3-3-3-3-3-3-3-0-0-0-0-0-0-0-0---------------------------------|
A|---------------------------------1-1-1-1-1-1-1-1-3-3-3-3-3-3-3-3-|  x2
E|-----------------------------------------------------------------|

Chorus (1's not 11's)
G|-----------------------------------------------------------------|
D|33333333333333330000000000000000---------------------------------|
A|--------------------------------11111111111111113333333333333333-|  x3
E|-----------------------------------------------------------------|

Outro ("And When you smile...")
G|-----------------------------------------------------|
D|---------3~---------0~-------------------------------|
A|--------------------------------1~---------3~--------|
E|-----------------------------------------------------|

| /  slide up
| \  slide down
| h  hammer-on
| p  pull-off
| ~  vibrato
| +  harmonic
| x  Mute note
===============================================================================

It's not very complicated, listen to the song to hear the timing.