Bruno Mars - It Will Rain Chords & Tabs

 

Bruno Mars Chords & Tabs

Version: 1 Type: Tab 0 ratings
1 star 2 stars 3 stars 4 stars 5 stars
comments

It Will Rain Tab

   
hey guys....this is my first tab...hope you like it :))
this is for all of my friends in my school....
this is a version based on a tab here in UG but without a capo...
if you want to say something to me...email me at brianbernardo10@yahoo.com


IT WILL RAIN
-BRUNO MARS


Standard Tuning
[ Tab from: http://www.guitartabs.cc/tabs/b/bruno_mars/it_will_rain_tab.html ]
verse:
       D            F#           D           F#
e|-----2------------x------------2-----------x---------------|
B|-----3------------7------------3-----------7---------------|
G|-----2------------6------------2-----------6---------------|
D|------------------4------------------------4---------------|
A|------------------x------------------------x---------------|
E|------------------x------------------------x---------------|
       Em            Bm          Em          Bm
e|-------------------2-----------------------2---------------|
B|-------------------3-----------------------3---------------|
G|-------------------4-----------------------4---------------|
D|-----2-------------4-----------2-----------4---------------|
A|-----2-------------2-----------2-----------2---------------|
E|-------------------2-----------------------2---------------|


Chorus:

       G             A         F#            Bm

e|-----3-----------------------x-------------2---------------|
B|-----3-------------2---------7-------------3---------------|
G|-------------------2---------6-------------4---------------|
D|-------------------2---------4-------------4---------------|  x 3
A|-----2-----------------------x-------------2---------------|
E|-----3-----------------------x-------------2---------------|

       Em    A    (last part of the chorus)
e|----------------|
B|-----------2----|
G|-----------2----|
D|---2-------2----|
A|---2------------|
E|----------------|


Bridge:

       G          F#

e|-----3----------x------|
B|-----3----------7------|
G|----------------6------|
D|----------------4------|  x 2
A|-----2----------x------| 
E|-----3----------x------|
  
     Em         A
e|-----------------------|
B|--------------2--------|
G|--------------2--------|
D|----2---------2--------|
A|----2------------------|
E|-----------------------|



Thank you for looking at my tab....please rate :))



Comments