Brujeria - Ritmos Satanicos Chords & Tabs

 

Ritmos Satanicos Chords & Tabs

Brujeria Chords & Tabs

Version: 1 Type: Tab 1 rating
1 star 2 stars 3 stars 4 stars 5 stars
comments

Ritmos Satanicos Tab

   
Song: Ritmos Satanicos
Band: Brujeria
Album: Raza Odiada
Transcribed: jose "pinche grenudo loko" oRejeL
E-Mail: albafreak1@juno.com

Drop D
^: let ring
PM: Palm Mute

The majority of this song is instrumental...so there's no chorus, bridge, etc...except
at the end...where JUAN BRUJO begins to talk...so u kan say that's the verse...well,
vote for my tab!!!

Intro (RIFF 1):

E|------------------------|
B|------------------------|
G|------------------------|
D|--5--6-5-9-10-9-10-8-7--| play this @ 4x's
A|--3--4-3-7- 8-7- 8-6-5--|
D|--3--4-3-7- 8-7- 8-6-5--|

RIFF 2:

E|---------------------------------|
B|---------------------------------|
G|---------------------------------|
D|--5--6-5-9-10-9-10-8-7--6-8-7-8--| play this @ 4x's
A|--3--4-3-7- 8-7- 8-6-5--4-6-5-6--|
D|--3--4-3-7- 8-7- 8-6-5--4-6-5-6--|

RIFF 3:

E|----------------------|
B|----------------------|
G|----------------------|
D|----------------------| PLAY THIS @ 4X'S
A|--3--4-3-7-8-7-8-6-5--|
D|--3--4-3-7-8-7-8-6-5--|
PM  .  . . . . . . . .

RIFF 4:
[ Tab from: http://www.guitartabs.cc/tabs/b/brujeria/ritmos_satanicos_tab.html ]
E|------------------------------------|
B|------------------------------------|
G|------------------------------------|
D|--5--6-5-9-10-9-10-8-7--6-8-7-8--3--| play this @ 4x's
A|--3--4-3-7- 8-7- 8-6-5--4-6-5-6--3--|
D|--3--4-3-7- 8-7- 8-6-5--4-6-5-6--3--|

RIFF 5:

E|--------------|----------------|
B|--------------|----------------|
G|---PLAY 2X'S--|---PLAY 3X'S----|
D|--------------|----------------|
A|--3--3-5-6-4--|--3--3-3-4-3-2--|
D|--3--3-5-6-4--|--3--3-3-4-3-2--|

RIFF 6:

E|---------------------------------|
B|---------------------------------|
G|---------------------------------| play about 9 times
D|--5--6-5-9-10-9-10-8-7--6-8-7-8--|
A|--3--4-3-7- 8-7- 8-6-5--4-6-5-6--|
D|--3--4-3-7- 8-7- 8-6-5--4-6-5-6--| then play bottom

E|------------------------------------|
B|------------------------------------|
G|------------------------------------|
D|--5--6-5-9-10-9-10-8-7--6-8-7-8--0^-| play once
A|--3--4-3-7- 8-7- 8-6-5--4-6-5-6--0^-|
D|--3--4-3-7- 8-7- 8-6-5--4-6-5-6--0^-|

VERSE:

E|-------------------------------------------------|
B|--FOR THE VERSE PART...JUST SLIDE UR PICK ALONG--|
G|--THE 6TH, 5TH, AND 4TH STRINGS...DON'T MATTER---|
D|--WHICH ONE...THEN RANDOMDLY STRIKE ANY OF THE---|
A|--3RD, 2ND, OR 1ST STRINGS...ALL UR TRYING TO DO-|
D|---------IS A STATIC-DISTORTION SOUND...---------|


and that's the whole song...all the riffs R in order it's played in the song...
so don't worry about what to play...kuz i already did that...later days...
Comments