Brujeria - Raza Odiada Chords & Tabs

 

Raza Odiada Chords & Tabs

Brujeria Chords & Tabs

Version: 1 Type: Tab 0 ratings
1 star 2 stars 3 stars 4 stars 5 stars
comments

Raza Odiada Tab

   
Band: Brujeria
Song: Raza Odiada
Album: Raza Odiada
Instrument: Guitar
Transcribed by: jose oRejeL (albafreak1@juno.com)
"drop D"

This is a bad-ass song by the band BRUJERIA and I thought u people might
like to play it...so please vote for my tab...even if u give it a one...

INTRO:
E|----------------------------------------|
B|----------------------------------------|
G|----------------------------------------|
D|--5-5--6-4-5-5-5--6-4-5-5-5--6-4-5-5-5--|
A|--5-5--6-4-5-5-5--6-4-5-5-5--6-4-5-5-5--| play 2 times
D|--5-5--6-4-5-5-5--6-4-5-5-5--6-4-5-5-5--| then play bottom

E|---------------------------------------------|
B|---------------------------------------------|
G|---------------------------------------------|
D|--5-5--6-4-5-5-5--6-4-5-5-5--6-4-5-5-5--5-5--|
A|--5-5--6-4-5-5-5--6-4-5-5-5--6-4-5-5-5--5-5--| play this 4 times
D|--5-5--6-4-5-5-5--6-4-5-5-5--6-4-5-5-5--5-5--|

VERSE:
E|----------------|
B|----------------| [">>"]= slide
G|----------------|
D|--9>>10>>9-0-0--|
A|--9>>10>>9-0-0--|
D|--7>> 8>>7-0-0--|
[ Tab from: http://www.guitartabs.cc/tabs/b/brujeria/raza_odiada_tab.html ]
KHORUS:
E|---------------------------------------------|
B|---------------------------------------------|
G|---------------------------------------------|
D|--5-5--6-4-5-5-5--6-4-5-5-5--6-4-5-5-5--5-5--|
A|--5-5--6-4-5-5-5--6-4-5-5-5--6-4-5-5-5--5-5--| play 4 times
D|--5-5--6-4-5-5-5--6-4-5-5-5--6-4-5-5-5--5-5--|

VERSE 2:
E|----------------|
B|----------------| [">>"]= slide
G|----------------|
D|--9>>10>>9-0-0--|
A|--9>>10>>9-0-0--|
D|--7>> 8>>7-0-0--|

KHORUS 2:
E|----------------------------------------|
B|----------------------------------------|
G|----------------------------------------|
D|--5-5--6-4-5-5-5--6-4-5-5-5--6-4-5-5-5--|
A|--5-5--6-4-5-5-5--6-4-5-5-5--6-4-5-5-5--| play once
D|--5-5--6-4-5-5-5--6-4-5-5-5--6-4-5-5-5--| then play bottom part

E|---------------------------------------------|
B|---------------------------------------------|
G|---------------------------------------------|
D|--5-5--6-4-5-5-5--6-4-5-5-5--6-4-5-5-5--5-5--|
A|--5-5--6-4-5-5-5--6-4-5-5-5--6-4-5-5-5--5-5--| play 4 times
D|--5-5--6-4-5-5-5--6-4-5-5-5--6-4-5-5-5--5-5--|

OUTRO:
E|--------------------|----|-----|
B|--------------------|then|-----|
G|--------------------|end-|-----|
D|--2-2---------------|with|--2--|
A|--2-2-[play 14x's]--|this|--2--|
D|--2-2---------------|----|--2--|
Comments