Brujeria - Peter Wilson Chords & Tabs

 

Peter Wilson Chords & Tabs

Brujeria Chords & Tabs

Version: 1 Type: Tab 0 ratings
1 star 2 stars 3 stars 4 stars 5 stars
comments

Peter Wilson Tab

Peter Wilson-Bujeria


 Its right, don’t argue.

1-----------------------------------------------
2-----------------------------------------------
3-----------------------------------------------
4-0010-00010-00010--00-0---------------
5-0010-00010-00010--00-0----------------
6-0010-00010-00010--00-0----------------

[ Tab from: http://www.guitartabs.cc/tabs/b/brujeria/peter_wilson_tab.html ]
1-----------------------------------------------
2-----------------------------------------------
3-----------------------------------------------
4-0010-00010-00010--000-00---------------
5-0010-00010-00010--000-00----------------
6-0010-00010-00010--000-00----------------

1-----------------------------------------------
2-----------------------------------------------
3-----------------------------------------------
4-3h4p3-0h1p0-3h4p3-x1p0---------------
5-3h4p3-0h1p0-3h4p3-x1p0---------------
6-3h4p3-0h1p0-3h4p3-x1p0---------------


if you cant play this, you really suck!
Comments