Brujeria - Matando Gueros Chords & Tabs

 

Matando Gueros Chords & Tabs

Brujeria Chords & Tabs

Version: 2 Type: Tab 0 ratings
1 star 2 stars 3 stars 4 stars 5 stars
comments

Matando Gueros Tab

Brujeria 'Matando Gueros'

Tabbed by: David V. [daviti666@eresmas.com]

Intro

  Bass Gtr.
G:-----------------------------------------------------|
D:-----------------------------------------------------|
A:--0--0-0-0--0--6--6-6-6--2--2-2-2--2--4--4-4-4-4-2-0-|
E:-----------------------------------------------------|

   Gtr.1
E:--------------------------------------------------------|
B:--------------------------------------------------------|
G:--------------------------------------------------------|
D:--------------------------------------------------------|
A:--0-----------------------------------------------------|
a:--0-----------------------------------------------------|
                                                          |
  Gtr.2                                                   |
E:--------------------------------------------------------|
B:--------------------------------------------------------|
G:--------------------------------------------------------|
D:--------------------------------------------------------|
A:--0------------------1---------------3------------------|
a:--0-----------------------------------------------------|

                             2 Times
E:----------------------------------|
B:----------------------------------|
G:----------------------------------|
D:----------------------------------|
A:--0-0-0-0-0-0-0-0-0-0-0-0-0-0-0-0-|
a:--0-0-0-0-0-0-0-0-0-0-0-0-0-0-0-0-|


  w/ Lyrics 1.                                  4 Times
E:-----------------------------------------------------|
B:-----------------------------------------------------|
G:-----------------------------------------------------|
D:-----------------------------------------------------|
A:--0--0-0-0--0--6--6-6-6--2--2-2-2--2--4--4-4-4-4-2-0-|
a:--0--0-0-0--0--6--6-6-6--2--2-2-2--2--4--4-4-4-4-2-0-|


Lyrics. 1

   Gabachos nos usan pa limpiar sus culos
   Nos tratan como mierda de puerco
   Tengan huevos y sean hombres
   Un pinche viaje al norte


  w/ Lyrics 2.                         4 Times
E:--------------------------------------------|
B:--------------------------------------------|
G:--------------------------------------------|
D:--------------------------------------------|
A:--0---------6---------2---------4-----4-2-0-|
a:--0--0-0-0--6--0-0-0--2--0-0-0--4--0--4-2-0-|
       P.m..     .....     .....     .

Lyrics.2

   Siglos pasan y nuestra raza se jode
   Cabrones gabachos, nos dan verga y miada
   Forzados a la pobreza,
   Somos pinches mayates
   Tu venganza sera tu destino oscuro

Chorus
------

   Gtr.1 (w/ Chorus.1)                          4 Times
E:-------------------------------------------------------|
B:-------------------------------------------------------|
G:-------------------------------------------------------|
D:-------------------------------------------------------|
A:--0--0-0-0--0--6--6-6-6--2--2-2-2--2--4--4-4-4-4-4-2-0-|
a:--0--0-0-0--0--6--6-6-6--2--2-2-2--2--4--4-4-4-4-4-2-0-|
                                                         |
  Gtr.2                                                  |
E:-------------------------------------------------------|
B:-------------------------------------------------------|
G:-------------------------------------------------------|
D:-------------------------------------------------------|
A:--0------------4---------6------------8----------------|
a:--0----------------------------------------------------|


Chorus.1

   Matando gueros - !!Viva la raza!!
   Matando gueros - !!Estilo Pancho Villa!!
   Matando gueros - !!Satanas te cuida!!
   Matando gueros - !!Matando gueros!!

                             2 Times
E:----------------------------------|
B:----------------------------------|
G:----------------------------------|
D:----------------------------------|
A:--4-2-0-4-2-0-4-2-0-4-2-0-4-2-4-2-|
a:--4-2-0-4-2-0-4-2-0-4-2-0-4-2-4-2-|

                             2 Times
E:----------------------------------|
B:----------------------------------|
G:----------------------------------|
D:----------------------------------|
A:--4-2-0-4-2-0-4-2-0-4-2-0-4-2-4-2-|
a:--4-2-0-4-2-0-4-2-0-4-2-0-4-2-4-2-|
    P.m............................

  w/ Lyrics 3.               4 Times
E:----------------------------------|
B:----------------------------------|
G:----------------------------------|
D:----------------------------------|
A:----------------------------------|
a:--4-2-0-4-2-0-4-2-0-4-2-0-4-2-4-2-|
    P.m............................

Lyrics 3.

   Machete en mano y sangre india caliente
   Fuerza satanica, buscando venganza
   Al norte nos vamos a podernos en mano
[ Tab from: http://www.guitartabs.cc/tabs/b/brujeria/matando_gueros_tab_ver_2.html ]
  Gtr.1 (w/ Chorus.2)                             4 Times
E:-------------------------------------------------------|
B:-------------------------------------------------------|
G:-------------------------------------------------------|
D:-------------------------------------------------------|
A:--0--0-0-0--0--6--6-6-6--2--2-2-2--2--4--4-4-4-4-4-2-0-|
a:--0--0-0-0--0--6--6-6-6--2--2-2-2--2--4--4-4-4-4-4-2-0-|
                                                         |
  Gtr.2                                                  |
E:-------------------------------------------------------|
B:-------------------------------------------------------|
G:-------------------------------------------------------|
D:-------------------------------------------------------|
A:--0------------4---------6------------8----------------|
a:--0----------------------------------------------------|

Chorus 2.

   Matando gueros - !!Viva la raza!!
   Matando gueros - !!Estilo Ricky Ramirez!!
   Matando gueros - !!Satanas te cuida!!
   Matando gueros - !!Matando gueros!!


   Both Gtrs. (w/ Lyrics 3.)
E:-------------------------------------------------------|
B:-------------------------------------------------------|
G:-------------------------------------------------------|
D:-------------------------------------------------------|
A:--0------------6---------2------------4----------4-2-0-|
a:--0------------6---------2------------4----------4-2-0-|
    /            /         /            /
    /            /         /            /
    Tremolo Picking.

  Gtr.2 (w/ Lyrics 3.)
E:-------------------------------------------------------|
B:-------------------------------------------------------|
G:-------------------------------------------------------|
D:-------------------------------------------------------|
A:--0------------4---------6------------8----------------|
a:--0----------------------------------------------------|
                                                         |
  Gtr.1 (w/ Lyrics 3.)                                   |
E:-------------------------------------------------------|
B:-------------------------------------------------------|
G:-------------------------------------------------------|
D:-------------------------------------------------------|
A:--0------------6---------2------------4----------4-2-0-|
a:--0------------6---------2------------4----------4-2-0-|
    /            /         /            /
    /            /         /            /
    Tremolo Picking.

   Both Gtrs. (w/ Lyrics 3.)                      2 Times
E:-------------------------------------------------------|
B:-------------------------------------------------------|
G:-------------------------------------------------------|
D:-------------------------------------------------------|
A:--0------------6---------2------------4----------4-2-0-|
a:--0------------6---------2------------4----------4-2-0-|
    /            /         /            /
    /            /         /            /
    Tremolo Picking.

Lyrics 3.

    Machestes, pistolfas, fierros
    Mata un guero
    Acepta las leyes del diablo
    Venganza para nuestra gente
    Te mete un pinche garrote en la panza cabron.
    Ven pa'ca cabron
    Te mato guero

  Gtr.1 (w/ Chorus.4)
E:-------------------------------------------------------|
B:-------------------------------------------------------|
G:-------------------------------------------------------|
D:-------------------------------------------------------|
A:--0----------------------------------------------------|
a:--0----------------------------------------------------|
                                                         |
  Gtr.2                                                  |
E:-------------------------------------------------------|
B:-------------------------------------------------------|
G:-------------------------------------------------------|
D:-------------------------------------------------------|
A:--0------------4---------6------------8----------------|
a:--0----------------------------------------------------|


   (w/ Chorus.4)
E:-------------------------------------------------------|
B:-------------------------------------------------------|
G:-------------------------------------------------------|
D:-------------------------------------------------------|
A:-(0)---------------------------------------------------|
a:-(0)---------------------------------------------------|
                                                         |
  Gtr.2                                                  |
E:-------------------------------------------------------|
B:-------------------------------------------------------|
G:-------------------------------------------------------|
D:-------------------------------------------------------|
A:---------------4---------6------------8--------0-------|
a:-----------------------------------------------0-------|


Chorus 4

        Asi!!
        Viva Mexico
        Matando Gueros
        Viva Mexico Cabron
Comments