Brujeria - Division Del Norte Chords & Tabs

 

Division Del Norte Chords & Tabs

Brujeria Chords & Tabs

Version: 1 Type: Tab 0 ratings
1 star 2 stars 3 stars 4 stars 5 stars
comments

Division Del Norte Tab

   
Song: Division Del Norte
Album: Brujerizmo
Band: Brujeria
Transcribed: pinche grenudo loko [albafreak1@juno.com]

INSTRUMENT: GUITAR
DROP D
SPM: Palm Mute

Here's another song that was requested...VOTE FOR MY TAB...LISTEN TO THE SONG FIRST!!!
LONG-LIVE BRUJERIA, FUKKERS!!!

Intro:
Play @ 2 times
E|--------------------------------------------------|
B|--------------------------------------------------|
G|--------------------------------------------------|
D|--------------------------------------------------| strum on the 6th fret, then
A|--------------------------------------------------| slide down to 7th...and play
D|--7-7-7-7-7-7-7-7>10-10-10>5-5-5-5-5>6-6-6-6-6-6--| again
SPM . . . . . . . .  .  .  . . . . . . . . . . . .
				       |STRUM!!!!!!|
Play @ 1 time
E|--------------------------------------------------------------|
B|--------------------------------------------------------------|
G|--------------------------------------------------------------|
D|--------------------------------------------------------------|
A|--------------------------------------------------------------|
D|--7-7-7-7-7-7-7-7>10-10-10>5-5-5-5-5>6-6-6-6-6-6-6-6-6-6-6-6--| then play bottom
SPM . . . . . . . .  .  .  . . . . . . . . . . . . . . . . . .

Verse:
Play @ 2 times
E|--------------------------------------------------|
B|--------------------------------------------------|
G|--------------------------------------------------|
D|--------------------------------------------------| strum on the 6th fret, then
A|--------------------------------------------------| slide down to 7th...and play
D|--7-7-7-7-7-7-7-7>10-10-10>5-5-5-5-5>6-6-6-6-6-6--| again
SPM . . . . . . . .  .  .  . . . . . . . . . . . .
				       |STRUM!!!!!!|
Play @ 1 time
E|----------------------------------------------------------------------|
B|----------------------------------------------------------------------|
G|-------------------------------------9-9-9-9-9-9-9-9-9-9-9-9-10-10----|
D|-------------------------------------7-7-7-7-7-7-7-7-7-7-7-7- 8- 8----|
A|-------------------------------------7-7-7-7-7-7-7-7-7-7-7-7- 8 -8----|
D|--7-7-7-7-7-7-7-7>10-10-10>5-5-5-5-5>---------------------------------| then play bottom
SPM . . . . . . . .  .  .  . . . . . .

Khorus:[play of of this stanzas twice]
Play @ 3 times
E|--------------------------------------------------|
B|--------------------------------------------------|
G|--------------------------------------------------|
D|--7-7-7-7-7-7-7-7>10-10-10>5-5-5-5-5>6-6-6-6-6-6--|
A|--7-7-7-7-7-7-7-7>10-10-10>5-5-5-5-5>6-6-6-6-6-6--|
D|--7-7-7-7-7-7-7-7>10-10-10>5-5-5-5-5>6-6-6-6-6-6--|

Play @ 1 time
E|-----------------------------|
B|-----------------------------|
G|-----------------------------|
D|--2-2-2-2-2-1-1-1-1-1-1-1-3--|
A|--2-2-2-2-2-1-1-1-1-1-1-1-3--|
D|--2-2-2-2-2-1-1-1-1-1-1-1-3--|

Pre-Verse:
Play @ 3 times
E|--------------------------------------------------|
B|--------------------------------------------------|
G|--------------------------------------------------|
D|--------------------------------------------------| strum on the 6th fret, then
A|--------------------------------------------------| slide down to 7th...and play
D|--7-7-7-7-7-7-7-7>10-10-10>5-5-5-5-5>6-6-6-6-6-6--| again
SPM . . . . . . . .  .  .  . . . . . . . . . . . .
				       |STRUM!!!!!!|
Play @ 1 time
E|--------------------------------------------------------------|
B|--------------------------------------------------------------|
G|--------------------------------------------------------------|
D|--------------------------------------------------------------|
A|--------------------------------------------------------------|
D|--7-7-7-7-7-7-7-7>10-10-10>5-5-5-5-5>6-6-6-6-6-6-6-6-6-6-6-6--| then play bottom
SPM . . . . . . . .  .  .  . . . . . . . . . . . . . . . . . .
[ Tab from: http://www.guitartabs.cc/tabs/b/brujeria/division_del_norte_tab.html ]
Verse:
Play @ 3 times
E|--------------------------------------------------|
B|--------------------------------------------------|
G|--------------------------------------------------|
D|--------------------------------------------------| strum on the 6th fret, then
A|--------------------------------------------------| slide down to 7th...and play
D|--7-7-7-7-7-7-7-7>10-10-10>5-5-5-5-5>6-6-6-6-6-6--| again
SPM . . . . . . . .  .  .  . . . . . . . . . . . .
				       |STRUM!!!!!!|
Play @ 1 time
E|----------------------------------------------------------------------|
B|----------------------------------------------------------------------|
G|-------------------------------------9-9-9-9-9-9-9-9-9-9-9-9-10-10----|
D|-------------------------------------7-7-7-7-7-7-7-7-7-7-7-7- 8- 8----|
A|-------------------------------------7-7-7-7-7-7-7-7-7-7-7-7- 8 -8----|
D|--7-7-7-7-7-7-7-7>10-10-10>5-5-5-5-5>---------------------------------| then play bottom
SPM . . . . . . . .  .  .  . . . . . .

Khorus:[play of of this stanzas twice]
Play @ 3 times
E|--------------------------------------------------|
B|--------------------------------------------------|
G|--------------------------------------------------|
D|--7-7-7-7-7-7-7-7>10-10-10>5-5-5-5-5>6-6-6-6-6-6--|
A|--7-7-7-7-7-7-7-7>10-10-10>5-5-5-5-5>6-6-6-6-6-6--|
D|--7-7-7-7-7-7-7-7>10-10-10>5-5-5-5-5>6-6-6-6-6-6--|

Play @ 1 time
E|-----------------------------|
B|-----------------------------|
G|-----------------------------|
D|--2-2-2-2-2-1-1-1-1-1-1-1-3--|
A|--2-2-2-2-2-1-1-1-1-1-1-1-3--|
D|--2-2-2-2-2-1-1-1-1-1-1-1-3--|

Bridge:
Play @ 4 times
E|---------------------------------------|
B|---------------------------------------|
G|---------------------------------------|
D|---------------------------------------|
A|--0-1-0--0-1-0-0-0-1-0--0-2-3-0-2-0-1--|
D|--0-1-0--0-1-0-0-0-1-0--0-2-3-0-2-0-1--|

Pre-Verse:
Play @ 4 times
E|--------------------------------------------------|
B|--------------------------------------------------|
G|--------------------------------------------------|
D|--------------------------------------------------| strum on the 6th fret, then
A|--------------------------------------------------| slide down to 7th...and play
D|--7-7-7-7-7-7-7-7>10-10-10>5-5-5-5-5>6-6-6-6-6-6--| again
SPM . . . . . . . .  .  .  . . . . . . . . . . . .
				       |STRUM!!!!!!|
Play @ 1 time
E|--------------------------------------------------------------|
B|--------------------------------------------------------------|
G|--------------------------------------------------------------|
D|--------------------------------------------------------------|
A|--------------------------------------------------------------|
D|--7-7-7-7-7-7-7-7>10-10-10>5-5-5-5-5>6-6-6-6-6-6-6-6-6-6-6-6--| then play bottom
SPM . . . . . . . .  .  .  . . . . . . . . . . . . . . . . . .

Verse:
Play @ 3 times
E|--------------------------------------------------|
B|--------------------------------------------------|
G|--------------------------------------------------|
D|--------------------------------------------------| strum on the 6th fret, then
A|--------------------------------------------------| slide down to 7th...and play
D|--7-7-7-7-7-7-7-7>10-10-10>5-5-5-5-5>6-6-6-6-6-6--| again
SPM . . . . . . . .  .  .  . . . . . . . . . . . .
				       |STRUM!!!!!!|
Play @ 1 time
E|----------------------------------------------------------------------|
B|----------------------------------------------------------------------|
G|-------------------------------------9-9-9-9-9-9-9-9-9-9-9-9-10-10----|
D|-------------------------------------7-7-7-7-7-7-7-7-7-7-7-7- 8- 8----|
A|-------------------------------------7-7-7-7-7-7-7-7-7-7-7-7- 8 -8----|
D|--7-7-7-7-7-7-7-7>10-10-10>5-5-5-5-5>---------------------------------| then play bottom
SPM . . . . . . . .  .  .  . . . . . .

Khorus:[play of of this stanzas twice]
Play @ 3 times
E|--------------------------------------------------|
B|--------------------------------------------------|
G|--------------------------------------------------|
D|--7-7-7-7-7-7-7-7>10-10-10>5-5-5-5-5>6-6-6-6-6-6--|
A|--7-7-7-7-7-7-7-7>10-10-10>5-5-5-5-5>6-6-6-6-6-6--|
D|--7-7-7-7-7-7-7-7>10-10-10>5-5-5-5-5>6-6-6-6-6-6--|

Play @ 1 time
E|-----------------------------|
B|-----------------------------|
G|-----------------------------|
D|--2-2-2-2-2-1-1-1-1-1-1-1-3--|
A|--2-2-2-2-2-1-1-1-1-1-1-1-3--|
D|--2-2-2-2-2-1-1-1-1-1-1-1-3--|

Outro:
Play @ 8 times
E|---------------------------------------|
B|---------------------------------------|
G|---------------------------------------|
D|---------------------------------------|
A|--0-1-0--0-1-0-0-0-1-0--0-2-3-0-2-0-1--|
D|--0-1-0--0-1-0-0-0-1-0--0-2-3-0-2-0-1--| then end with bottom

E|---------|
B|---------|
G|---------|
D|---------|
A|--0-1-0--|
D|--0-1-0--|
Comments