Bruce Springsteen - The Rising Chords & Tabs

 

The Rising Chords & Tabs

Bruce Springsteen Chords & Tabs

Version: 2 Type: Tab 0 ratings
1 star 2 stars 3 stars 4 stars 5 stars
comments

The Rising Tab

Bruce Springsteen - The Rising
Submitted By: berni
EMail: bass13bbb@hotmail.com


I've seen lots of tabs for this song, but they are awful,
this one is 99%correct, so enjoy it.

E|-----1--------------------1--------------------------------------------------||
B|-----1--------------------3-------------------------------------------------||
G|-----2--------------------3--------------------------------------------------||
D|-----3--------------------3--------------------------------------------------||
A|-----3--------------------1--------------------------------------------------||
E|-----1--------------------1--------------------------------------------------||
This 2 chords are the same for the chorus and for the verses.
they are the same during all the song except for this part:
[ Tab from: http://www.guitartabs.cc/tabs/b/bruce_springsteen/the_rising_tab_ver_2.html ]
E|---------------------------------------------------------------------------||
B|---------------------------------------------------------------------------||
G|-----5--------------------3--------------------------------------------------||
D|-----5--------------------3--------------------------------------------------||
A|-----3--------------------1--------------------------------------------------||
E|---------------------------------------------------------------------------||
It is the la,la,lala,la,lala

solo=100%correct
E|------------------------8 10 8 6--------------8-------------------------------------||
B|-----8------------------------------8 6----------------------------------------||
G|---------------------------------------------------------------------------||
D|---------------------------------------------------------------------------||
A|---------------------------------------------------------------------------||
E|---------------------------------------------------------------------------||

E|-----6 8 6 8 6 8 6 8 6----------8 10 8 6-------------10 8-----------------------------------------------||
B|---------------------------8-----------------8 6-------------------------------||
G|---------------------------------------------------------------------------||
D|---------------------------------------------------------------------------||
A|---------------------------------------------------------------------------||
E|---------------------------------------------------------------------------||
that's all.
Comments