Bruce Springsteen - Streets Of Philadelphia Chords & Tabs

 

Streets Of Philadelphia Chords & Tabs

Bruce Springsteen Chords & Tabs

Version: 1 Type: Bass Tab

Streets Of Philadelphia Bass Tab

Song : Streets of Philadelphia

Artist : Bruce Springsteen

Album : Bruce Springsteen greatest hits

Tabbed by Alan Deely (merdetruc@hotmail.com)



 Intro

 |-------------------|
 |-------------------|
 |--8----------------|
 |------5----1----5--| 


 Verse 1
 
 |-------------------|
 |-------------------|
 |-------------------|
 |--1----5----1----5-|


 Chorus 1

 |-------------------|
 |-------------------|
 |-------------------|
 |--6---5----8----8--| X 2


 Verse 2

 |--------------------------------------|
 |--------------------------------------|
 |--------------------------------------|
 |--1----1---5----5---5-1---1---3-5--5--|


 Chorus 2
 
 |------------------------------------------------|
 |-------------------------------------------5----|
 |----------8-----10-----------8/--3-----3------3-|
 |--6---5-----8------8---5-6-----------3----------|


 Bridge
[ Tab from: http://www.guitartabs.cc/tabs/b/bruce_springsteen/streets_of_philadelphia_btab.html ]
 |-------------------------------------------|
 |-------------------------------------------|
 |--8----5---------8-------------------------|
 |----6------8-6-------5----6----8----8----8-|

 
 Verse 3

 |-----------------------------------------------------|
 |-----------------------------------------------------|
 |------0----------------------------------------------|
 |--1-----1----1-3--5---5---8-5--1---1---0-1-3--5---5--|


 Chorus 3

 |-------------------------------------------------------------------|
 |-------------------------------------------------------------------|
 |--------8-------------10---------------8-------------10------------|
 |--5-6-----5----6-8-------8----8/--6------5---3--8-------8----8/----|

 

 |-------------------------------------------------------------------|
 |-------------------------------------------------------------------|
 |---------8-------------10-------------------------10/--------------|
 |-6--6-6-----5----6-8-------8----8/--6----8/--5----------5-----6-8--| Fade


 / = slide

 yeah,nice song.