Bruce Springsteen - Kittys Back Chords & Tabs

 

Kittys Back Chords & Tabs

Bruce Springsteen Chords & Tabs

Version: 2 Type: Tab

Kittys Back Tab

"Kitty's Back" Intro
Bruce Springsteen
Wild, Innocent, And The E-Street Shuffle.
Posted By Baba O'reilly

Intro:
E----------------------------------12b--10--------------------------|
B-----------10--10---13--13--------------13-10----------------------|
G-------------------------------------------------------12b-h--14b--|
D-14-14-------------------------------------------------------------|
A ------------------------------------------------------------------|
E-------------------------------------------------------------------|

E---------------12-12--10b----------------------------------------|
B---10--13-------------------13----10b----------------------------|
G-----------------------------------------------12---9---11b---9--|
D-----------------------------------------------------------------|
A-----------------------------------------------------------------|
E-----------------------------------------------------------------|

--------------12--10---------------------------------|
--10--13--------------13--10-------------------------|
--------------------------------------12---12b--h14--|
-----------------------------------------------------|
-----------------------------------------------------|
-----------------------------------------------------|

--------------12--12--10-------------------------------------------------|
--10--13-------------------13--10----------------------------------------|
-------------------------------------------12--9---7---5/7---------------|
-------------------------------------------------------------------------|
-------------------------------------------------------------------------|
-------------------------------------------------------------------------|
[ Tab from: http://www.guitartabs.cc/tabs/b/bruce_springsteen/kittys_back_tab_ver_2.html ]
--------------12----10-------------------------------------------------15b----10---------|
-10--13-------------------13-----10---------10-------13-------------------------13---10--|
-----------------------------------------------------------------------------------------|
-----------------------------------------------------------------------------------------|
-----------------------------------------------------------------------------------------|
-----------------------------------------------------------------------------------------|

----------------10---------12---12---12---12---10-------------17b--|
---10---13---------13---------------------------------13--10-------|
-------------------------------------------------------------------|
-------------------------------------------------------------------|
-------------------------------------------------------------------|
-------------------------------------------------------------------|

------------12--10-------------------------------10--12--10------------|
-10--13--------------13--10-----10----13--------------------13-----10--|
-----------------------------------------------------------------------|
-----------------------------------------------------------------------|
-----------------------------------------------------------------------|
-----------------------------------------------------------------------|

-------------10---------12--12--12---10--------10--------12b--|
-10--13----------13-------------------------13----------------|
--------------------------------------------------------------|
--------------------------------------------------------------|
--------------------------------------------------------------|
--------------------------------------------------------------|

There