Bruce Springsteen - All The Way Home Chords & Tabs

 

All The Way Home Chords & Tabs

Bruce Springsteen Chords & Tabs

Version: 1 Type: Tab

All The Way Home Tab

---------------------------------------------------|
---------------------------------------------------|
---12-10-9-10-9-10-9-----12-10-9-10-9--------------|
--------------------------------------10-----------|
---------------------------------------------------|
---------------------------------------------------|
[ Tab from: http://www.guitartabs.cc/tabs/b/bruce_springsteen/all_the_way_home_tab.html ]
---------------------------------------------------|
---------------------------------------------------|
---12-10-9-10-9-10-9-----12-10-9-10-9--------------|
--------------------------------------10-----------|
---------------------------------------------------|
---------------------------------------------------|
[ Tab from: http://www.guitartabs.cc/tabs/b/bruce_springsteen/all_the_way_home_tab.html ]
tuning.. standard.. this is my first tab.. if im wrong please correct it

this is only the intro