Bruce Dickinson - The Tower Chords & Tabs

 

The Tower Chords & Tabs

Bruce Dickinson Chords & Tabs

Version: 1 Type: Tab 0 ratings
1 star 2 stars 3 stars 4 stars 5 stars
comments

The Tower Tab

Author/Artist: Bruce Duckinson
Title: The Tower solo
Album: The Chemical Wedding
Transcribed by: Bishop
Email: Outlaw33@hotmail.com

------------------------------------------------------------------------------
-15b-15b-15-16-17-16-15-16v--15-16-15-13---15-13-12----13-12----12------------
----------------------------------------------------14-------14----11v--------
------------------------------------------------------------------------------
------------------------------------------------------------------------------
------------------------------------------------------------------------------
                                                                              

------------------------------------------5-5----------15b-15b-15-16-17-16----
--------------------------------5-7-5-7-5-----7v------------------------------
-0-0-4p2p0--0-0-4p2p0--0-0-5^-------------------------------------------------
------------------------------------------------------------------------------
------------------------------------------------------------------------------
------------------------------------------------------------------------------
                                                                              

-15-16v--16-17-16p15h16--17-16p15p16--17-16p15-16-17-16p15-16-17-17b----------
------------------------------------------------------------------------------
------------------------------------------------------------------------------
------------------------------------------------------------------------------
------------------------------------------------------------------------------
------------------------------------------------------------------------------
                                                                              
[ Tab from: http://www.guitartabs.cc/tabs/b/bruce_dickinson/the_tower_tab.html ]
-------21-20-19-21-20-19-19/18--17-19-17----17--------14-15-17-14-15-17-19----
-19-20-----------------------------------19----19v----------------------------
------------------------------------------------------------------------------
------------------------------------------------------------------------------
------------------------------------------------------------------------------
------------------------------------------------------------------------------
                                                                              

-17--17-19-20-19---19-20-22b--------------------------------------------------
------------------------------------------------------------------------------
------------------------------------------------------------------------------
------------------------------------------------------------------------------
------------------------------------------------------------------------------
------------------------------------------------------------------------------
            2x                                   2x                           

------------------------------------------------------------------------------
-----------12-10-8-10-8----8------------------------12-10-8-10-8----8---------
-9-9-9-9-9--------------11---11----------------------------------11---11------
-------------------------------------10-10-10-10-10---------------------------
------------------------------------------------------------------------------
------------------------------------------------------------------------------
            2x                                                                

------------------------------------------------------------------------------
-----------12-10-8-10-8----8-------------------------12-10-8-10-8----8--------
------------------------11---11-------10-10-10-10-10--------------10---10-----
-7-7-7-7-7--------------------------------------------------------------------
------------------------------------------------------------------------------
------------------------------------------------------------------------------
     10x each                                                                 

--------19-------15-------17-------------20-------20--------22-------20-------
--17-17----17-17----17-17----------17-17----17-17-----17-17----17-17----------
------------------------------------------------------------------------------
------------------------------------------------------------------------------
------------------------------------------------------------------------------
------------------------------------------------------------------------------
Comments