Bruce Dickinson - Tears Of The Dragon Chords & Tabs

 

Tears Of The Dragon Chords & Tabs

Bruce Dickinson Chords & Tabs

Version: 1 Type: Bass Tab 0 ratings
1 star 2 stars 3 stars 4 stars 5 stars
comments

Tears Of The Dragon Bass Tab

Bruce Dickinson - Tears Of The Dragon
Tabbed By: imthebeststd
EMail: bighabit69@iamwasted.com

standard tunings

                                                                 
||-------------------|---------------------|-------------------|
||-------------------|---------------------|-------------------|
||--0----------------|--3--------------3h5-|--0----------------|
||-------------------|---------------------|-------------------|


                                                                
---------------------|-------------------|---------------------|
---------------------|-------------------|---------------------|
--3--------------3h2-|--0----------------|--3--------------3h5-|
---------------------|-------------------|---------------------|


                                                              
-------------------|---------------------|-------------------|
-------------------|---------------------|-------------------|
--0----------------|--3--------------3h5-|--0----------------|
-------------------|---------------------|-------------------|


                                                                
---------------------|-------------------|---------------------|
---------------------|-------------------|---------------------|
--3--------------3h5-|--0----------------|--3--------------3h5-|
---------------------|-------------------|---------------------|


                                                                          
--------------------|--------------------|--------------------|----------|
--------------------|--------------------|--------------------|----------|
--0--------0--------|--------------------|-----------5--------|----------|
--------------------|--0--------0--------|--3-----------------|----------|


                                                                               
--------------------|--------------------|--------------------|---------------|
--------------------|--------------------|--------------------|---------------|
--0-----------------|--------------------|-----------5--------|--5--5--5-5-5--|
-----------0--------|--0--------3--------|--3-----------------|---------------|


                                                      
--------------------------|--------------------------|
--------------------------|--------------------------|
--------------3--3--3--3--|--------------5--5--5--5--|
--0--0--0--0--------------|--3--3--3--3--------------|


                                                      
--------------------------|--------------------------|
--------------------------|--------------------------|
--------------3--3--3--3--|--------------5--5--5--5--|
--0--0--0--0--------------|--3--3--3--3--------------|


                                                      
--------------------------|--------------------------|
--------------------------|--------------------------|
--------------3--3--3--3--|--------------5--5--5--5--|
--0--0--0--0--------------|--3--3--3--3--------------|


                                                                  
--------------------------|--------------------------|-----------|
--------------------------|--------------------------|-----------|
--------------3--3--3--3--|--------------5--5--5--5--|--5--------|
--0--0--0--0--------------|--3--3--3--3--------------|-----------|


                                                              
-------------------|---------------------|-------------------|
-------------------|---------------------|-------------------|
--0----------------|--3--------------3h5-|--0----------------|
-------------------|---------------------|-------------------|


                                                                
---------------------|-------------------|---------------------|
---------------------|-------------------|---------------------|
--3--------------3h5-|--0----------------|--3--------------3h5-|
---------------------|-------------------|---------------------|


                                                               
-------------------|---------------------|--------------------|
-------------------|---------------------|--------------------|
--0----------------|--3--------------3h5-|--0--------0--------|
-------------------|---------------------|--------------------|


                                                                          
--------------------|--------------------|----------|--------------------|
--------------------|--------------------|----------|--------------------|
--------------------|-----------5--------|----------|--0-----------------|
--0--------0--------|--3-----------------|----------|-----------0--------|


                                                          
--------------------|--------------------|---------------|
--------------------|--------------------|---------------|
--------------------|-----------5--------|--5--5--5-5-5--|
--0--------3--------|--3-----------------|---------------|


                                                      
--------------------------|--------------------------|
--------------------------|--------------------------|
--------------3--3--3--3--|--------------5--5--5--5--|
--0--0--0--0--------------|--3--3--3--3--------------|


                                                      
--------------------------|--------------------------|
--------------------------|--------------------------|
--------------3--3--3--3--|--------------5--5--5--5--|
--0--0--0--0--------------|--3--3--3--3--------------|


                                                      
--------------------------|--------------------------|
--------------------------|--------------------------|
--------------3--3--3--3--|--------------5--5--5--5--|
--0--0--0--0--------------|--3--3--3--3--------------|


                                                                  
--------------------------|--------------------------|-----------|
--------------------------|--------------------------|-----------|
--------------3--3--3--3--|--------------5--5--5--5--|--5--------|
--0--0--0--0--------------|--3--3--3--3--------------|-----------|


                                                            
-------------------|-------------------|-------------------|
-------------------|-------------------|-------------------|
--0----------------|--0----------------|-------------------|
-------------------|-------------------|--3----------------|


                                                             
--------------------|-------------------|-------------------|
--------------------|-------------------|-------------------|
--------------------|--0----------------|--0----------------|
--1--------3--------|-------------------|-------------------|


                                                                    
-------------------|--------------------|--------------------------|
-------------------|--------------------|--------------------------|
--5----------------|--3-----------------|--0--0--0--0--0--0--0--0--|
-------------------|-----------3--------|--------------------------|


                                                      
--------------------------|--------------------------|
--------------------------|--------------------------|
--0--0--0--0--0--0--0--0--|--------------------------|
--------------------------|--3--3--3--3--3--3--3--3--|


                                                      
--------------------------|--------------------------|
--------------------------|--------------------------|
--------------------------|--0--0--0--0--0--0--0--0--|
--1--1--1--1--3--3--3--3--|--------------------------|


                                                      
--------------------------|--------------------------|
--------------------------|--------------------------|
--0--0--0--0--0--0--0--0--|--5--5--5--5--5--5--5--5--|
--------------------------|--------------------------|


                                                      
--------------------------|--------------------------|
--------------------------|--------------------------|
--3--3--3--3--------------|--0--0--0--0--0--0--0--0--|
--------------3--3--3--3--|--------------------------|

[ Tab from: http://www.guitartabs.cc/tabs/b/bruce_dickinson/tears_of_the_dragon_btab.html ]
                                                      
--------------------------|--------------------------|
--------------------------|--------------------------|
--0--0--0--0--0--0--0--0--|--------------------------|
--------------------------|--3--3--3--3--3--3--3--3--|


                                                      
--------------------------|--------------------------|
--------------------------|--------------------------|
--------------------------|--0--0--0--0--0--0--0--0--|
--1--1--1--1--3--3--3--3--|--------------------------|


                                                      
--------------------------|--------------------------|
--------------------------|--------------------------|
--0--0--0--0--0--0--0--0--|--5--5--5--5--5--5--5--5--|
--------------------------|--------------------------|


                                                      
--------------------------|--------------------------|
--------------------------|--------------------------|
--3--3--3--3--------------|--0--0--0--0--0--0--0--0--|
--------------3--3--3--3--|--------------------------|


                                                      
--------------------------|--------------------------|
--------------------------|--------------------------|
--0--0--0--0--0--0--0--0--|--------------------------|
--------------------------|--3--3--3--3--3--3--3--3--|


                                                      
--------------------------|--------------------------|
--------------------------|--------------------------|
--------------------------|--0--0--0--0--0--0--0--0--|
--1--1--1--1--3--3--3--3--|--------------------------|


                                                      
--------------------------|--------------------------|
--------------------------|--------------------------|
--0--0--0--0--0--0--0--0--|--5--5--5--5--5--5--5--5--|
--------------------------|--------------------------|


                                                      
--------------------------|--------------------------|
--------------------------|--------------------------|
--3--3--3--3--------------|--0--0--0--0--0--0--0--0--|
--------------3--3--3--3--|--------------------------|


                                                      
--------------------------|--------------------------|
--------------------------|--------------------------|
--0--0--0--0--0--0--0--0--|--------------------------|
--------------------------|--3--3--3--3--3--3--3--3--|


                                                      
--------------------------|--------------------------|
--------------------------|--------------------------|
--------------------------|--0--0--0--0--0--0--0--0--|
--1--1--1--1--3--3--3--3--|--------------------------|


                                                      
--------------------------|--------------------------|
--------------------------|--------------------------|
--0--0--0--0--0--0--0--0--|--5--5--5--5--5--5--5--5--|
--------------------------|--------------------------|


                                                      
--------------------------|--------------------------|
--------------------------|--------------------------|
--3--3--3--3--------------|--0--0--0--0--0--0--0--0--|
--------------3--3--3--3--|--------------------------|


                                                      
--------------------------|--------------------------|
--------------------------|--------------------------|
--0--0--0--0--0--0--0--0--|--------------------------|
--------------------------|--3--3--3--3--3--3--3--3--|


                                                      
--------------------------|--------------------------|
--------------------------|--------------------------|
--------------------------|--0--0--0--0--0--0--0--0--|
--1--1--1--1--1--1--1--1--|--------------------------|


                                                      
--------------------------|--------------------------|
--------------------------|--------------------------|
--0--0--0--0--0--0--0--0--|--5--5--5--5--5--5--5--5--|
--------------------------|--------------------------|


                                                                         
--------------------------|--2----2s---2s---2s---|----------------------|
--------------------------|----------------------|--0s---0s---2s---2s---|
--3--3--3--3--------------|----------------------|----------------------|
--------------3--3--3--3--|----------------------|----------------------|


                                                                     
--2s---2s---2s---2s---|----------------------|--2s---2s---2s---2s---|
----------------------|--0s---0s---2s---2s---|----------------------|
----------------------|----------------------|----------------------|
----------------------|----------------------|----------------------|


                                                                          
----------------------|--2s---2s---2s---2s---|---------------------------|
--0s---0s---2s---2s---|----------------------|--0s---0s------------------|
----------------------|----------------------|------------7--7--7--7/-x--|
----------------------|----------------------|---------------------------|


                                                                          
--------------------|--------------------|--------------------|----------|
--------------------|--------------------|--------------------|----------|
--0--------0--------|--------------------|-----------5--------|----------|
--------------------|--0--------0--------|--3-----------------|----------|


                                                                               
--------------------|--------------------|--------------------|---------------|
--------------------|--------------------|--------------------|---------------|
--0-----------------|--------------------|-----------5--------|--5--5--5-5-5--|
-----------0--------|--0--------3--------|--3-----------------|---------------|


                                                      
--------------------------|--------------------------|
--------------------------|--------------------------|
--------------3--3--3--3--|--------------5--5--5--5--|
--0--0--0--0--------------|--3--3--3--3--------------|


                                                      
--------------------------|--------------------------|
--------------------------|--------------------------|
--------------3--3--3--3--|--------------5--5--5--5--|
--0--0--0--0--------------|--3--3--3--3--------------|


                                                      
--------------------------|--------------------------|
--------------------------|--------------------------|
--------------3--3--3--3--|--------------5--5--5--5--|
--0--0--0--0--------------|--3--3--3--3--------------|


                                                      
--------------------------|--------------------------|
--------------------------|--------------------------|
--------------3--3--3--3--|--------------5--5--5--5--|
--0--0--0--0--------------|--3--3--3--3--------------|


                                                      
--------------------------|--------------------------|
--------------------------|--------------------------|
--------------3--3--3--3--|--------------5--5--5--5--|
--0--0--0--0--------------|--3--3--3--3--------------|


                                                      
--------------------------|--------------------------|
--------------------------|--------------------------|
--------------3--3--3--3--|--------------5--5--5--5--|
--0--0--0--0--------------|--3--3--3--3--------------|


                                                      
--------------------------|--------------------------|
--------------------------|--------------------------|
--------------3--3--3--3--|--------------5--5--5--5--|
--0--0--0--0--------------|--3--3--3--3--------------|


                                                                           
--------------------------|--------------------------|----|----|----|----||
--------------------------|--------------------------|----|----|----|----||
--------------3--3--3--3--|--------------5--5--5--5--|----|----|----|----||
--0--0--0--0--------------|--3--3--3--3--------------|----|----|----|----||
Comments