Bruce Dickinson - Strange Death In Paradise Chords & Tabs

 

Strange Death In Paradise Chords & Tabs

Bruce Dickinson Chords & Tabs

Version: 1 Type: Tab 0 ratings
1 star 2 stars 3 stars 4 stars 5 stars
comments

Strange Death In Paradise Tab

   
This file was taken from the " SavatagE & Iron Maiden Israeli Home Page " ,
AddresS : Http://www.geocities.com/SunsetStrip/Towers/2260        .

For MORE NEW NEVER BEFORE SEEN TABS of this bands , check out the place !!!


                          "Strange Death in Paradise"
                         (B. Dickinson / A. Dickson)

     Guitar transcription by Jeremy Haines (haines@powered.cs.yale.edu)


[ Watch for the subtle variations throughout the song.  Also, things get a bit messy toward the end... ]
[ the bass plays in the same range as the guitar and sounds similar, so I may have accidentally tabbed ]
[ some of that in here.  Nevertheless, this should be a reasonable approximation...  - JH              ]

6/8 time, ~120 bpm.  Drop only the bottom string to D.

(let ring)
|-------0-----------0-----|---------0---------2-0---|---------0---------0-----|-------------------------|
|-----3-----3-----------3-|-------3---3-------------|-------3---3-----------3-|-------3-----------3-----|
|---2---------1-----------|-----2-------1-----------|-----2-------1-----------|-----2-----------2-------|
|-----------------0-------|-----------------0-------|-----------------0-------|---0-----------0---------|
|-------------------------|-------------------------|-------------------------|-2-----------1-----------|
|-0-----------------------|-0-----------------------|-0-----------------------|-------------------------|

0:11
|---------0---------0-----|---------0---------2-0---|---------0---------0-----|-------------------------|
|-------3---3-----------3-|-------3---3-------------|-------3---3-----------3-|-------3-----------------|
|-----2-------1-----------|-----2-------1-----------|-----2-------1-----------|-----2-------------------|
|-----------------0-------|-----------------0-------|-----------------0-------|---0---------------------|
|-------------------------|-------------------------|-------------------------|-2---------2-1-----------|
|-0-----------------------|-0-----------------------|-0-----------------------|-------------------------|

0:22
|-------0-----------0-----|---------0---------2-0---|---------0---------0-----|-------------------------|
|-----3-----3-----------3-|-------3---3-------------|-------3---3-----------3-|-------3-----------3-----|
|-------------1-----------|-------------1-----------|-------------1-----------|-----2-----------2-------|
|-----------------0-------|-----------------0-------|-----------------0-------|-------------------------|
|-------------------------|-------------------------|-------------------------|-2-----------1-----------|
|-0-----------------------|-0-----------------------|-0-----------------------|-------------------------|

  Spiralling, falling,  a   silver machine...    From wings of    freedom       silent above...

0:34
|---------0---------0-----|---------0---------2-0---|---------0---------0-----|-------------------------|
|-------3---3-----------3-|-------3---3-------------|-------3---3-----------3-|-------3-----------3-----|
|-----2-------1-----------|-----2-------1-----------|-----2-------1-----------|-----2-----------2-------|
|-----------------0-------|-----------------0-------|-----------------0-------|-------------------------|
|-------------------------|-------------------------|-------------------------|-2-----------1-----------|
|-0-----------------------|-0-----------------------|-0-----------------------|-------------------------|

  Eyelids were burning,     summer sun  roasting,     Tumbling    chrome in the clear blue  sky...

0:45
|---------0---------0-----|---------0---------2-0---|---------0---------0-----|-------------------------|
|-------3---3-----------3-|-------3---3-------------|-------3---3-------3-----|-------3-----------3-----|
|-----2-------1-----------|-----2-------1-----------|-----2-------1-----------|-----2-----------2-------|
|-----------------0-------|-----------------0-------|-------------------------|-------------------------|
|-------------------------|-------------------------|-------------------------|-3-----------2-----------|
|-0-----------------------|-0-----------------------|-0-----------------------|-------------------------|

Brighter than sunshine, for all of our  lifetimes,    One thousand stars turned day into    night at the

0:57
|-------------------------|-------------------------|-------------------------|-------------------------|
|-------1-----------1-----|-------1-----------1-----|-------------------------|-------1-----------1-----|
|-----0-----------0-------|-----0-----------0-------|-------------------------|-----0-----------0-------|
|-------------------------|-------------------------|-0(5)5-5-5\--0(5)5-5-5\--|---0-----------0---------|
|-1-----------1-----------|-1-----------0-----------|-0(5)5-5-5\--0(5)5-5-5\--|-2-----------1-----------|
|-------------------------|-------------------------|-0(5)5-5-5\--0(5)5-5-5\--|-------------------------|

  end...                                                          Where   were  you when it fell from the

1:08
|-------------------------|-------------------------|-------------------------|-------------------------|
|-------------------------|-------1-----------1-----|-------------------------|-------1-----------1-----|
|-------------------------|-----0-----------0-------|-------------------------|-----0-----------0-------|
|-0(5)5-5-5\--0(5)5-5-5\--|---0-----------0---------|-0(5)5-5-5\--0(5)5-5-5\--|---0-----------0---------|
|-0(5)5-5-5\--0(5)5-5-5\--|-2-----------1-----------|-0(5)5-5-5\--0(5)5-5-5\--|-2-----------1-----------|
|-0(5)5-5-5\--0(5)5-5-5\--|-------------------------|-0(5)5-5-5\--0(5)5-5-5\--|-------------------------|

  sky?        I       saw the movie, I  read the    reply...      In      the beginning there was only the

1:18
|-------0-----------0-----|---------0---------2-0---|---------0---------------|-------------------------|
|-----3-----3-----------3-|-------3---3-------------|-------3---3-3---3-------|-------3-----3-----------|
|---2---------1-----------|-----2-------1-----------|-----2-------1---1-------|-----2-------2-----------|
|-----------------0-------|-----------------0-------|-------------------2---0-|---0---------0-----------|
|-------------------------|-------------------------|-------------------------|-2-----------1-----------|
|-0-----------------------|-0-----------------------|-0-----------------------|-------------------------|

  word...

1:30
|-------0-----------0-----|---------0---------2-0---|---------0---------0-----|-------------------------|
|-----3-----3-----------3-|-------3---3-------------|-------3---3-----------3-|-------3-----------3-----|
|-------------1-----------|-------------1-----------|-----2-------1-----------|-----2-----------2-------|
|-----------------0-------|-----------------0-------|-----------------0-------|-------------------------|
|-------------------------|-------------------------|-------------------------|-2-----------1-----------|
|-0-----------------------|-0-----------------------|-0-----------------------|-------------------------|

  People were kissing    in front of their shadows,   children were playing     out in the yard...

1:41
|---------0---------0-----|---------0---------2-0---|---------0---------0-----|-------------------------|
|-------3---3-----------3-|-------3---3-------------|-------3---3-------3-----|-------3-----------3-----|
|-----2-------1-----------|-----2-------1-----------|-----2-------1-----------|-----2-----------2-------|
|-----------------0-------|-----------------0-------|-------------------------|-------------------------|
|-------------------------|-------------------------|-------------------------|-3-----------2-----------|
|-0-----------------------|-0-----------------------|-0-----------------------|-------------------------|

  I   am not  guilty...     I   made no difference... I   wasn't  born    and   I   wasn't  made on that

1:52
|-------------------------|-------------------------|-------------------------|-------------------------|
|-------1-----------1-----|-------1-----------1-----|-------------------------|-------1-----------1-----|
|-----0-----------0-------|-----0-----------0-------|-------------------------|-----0-----------0-------|
|-------------------------|-------------------------|-0(5)5-5-5\--0(5)5-5-5\--|---0-----------0---------|
|-1-----------1-----------|-1-----------0-----------|-0(5)5-5-5\--0(5)5-5-5\--|-2-----------1-----------|
|-------------------------|-------------------------|-0(5)5-5-5\--0(5)5-5-5\--|-------------------------|

  day...                                                          Where   were  you when it fell from the

2:03
|-------------------------|-------------------------|-------------------------|-------------------------|
|-------------------------|-------1-----------1-----|-------------------------|-------1-----------1-----|
|-------------------------|-----0-----------0-------|-------------------------|-----0-----------0-------|
|-0(5)5-5-5\--0(5)5-5-5\--|---0-----------0---------|-0(5)5-5-5\--0(5)5-5-5\--|---0-----------0---------|
|-0(5)5-5-5\--0(5)5-5-5\--|-2-----------1-----------|-0(5)5-5-5\--0(5)5-5-5\--|-1-----------0-----------|
|-0(5)5-5-5\--0(5)5-5-5\--|-------------------------|-0(5)5-5-5\--0(5)5-5-5\--|-------------------------|

  sky?        I       saw the movie, I  read the    reply...      In      the beginning there was only the

2:14
|-------------------------|-------------------2-0---|-------------------------|-------------------------|
|-------3-3-3-3---3-----3-|-----3-3-3---3-----------|-------------------------|-------3-----3/5\3/6\3---|
|-------2-2-2-1---1-1---1-|-----2-4-2---1-----------|-----2^-(2)--1^-(1)------|-----2-------2/4\2/5\2---|
|-------------------2-----|-----------------2-------|-------------------2-----|---0---------------------|
|-------------------------|-------------------------|-------------------------|-2---------1-------------|
|-0-----------------------|-0-----------------------|-0-------------------2---|-------------------------|

  word...

2:25
|-------------------------|-------------------2-0---|-------------------------|-------------------------|
|-----3-3-3---3---3-------|-----3-3-3---3-----------|-----3-3-3-3-3---3-------|-------3-----3-----------|
|-----2-2-2---1---1-1---1-|-----2-4-2---1-----------|-----2-2-2-2-1---1-1-----|-----2-------2-----------|
|-----------0-------2---2-|-------------0(2)--------|-------------------2---0-|---0---------0-----------|
|-------------------------|-------------------------|-------------------------|-2-----------1-----------|
|-0-----------------------|-0-----------------------|-0-----------------------|-------------------------|

2:36
|-------------------------|-------------------------|-------------------------|-------------------------|
|-------3-----------3---3-|-------3-----------3---3-|-3-----3---3-------3---3-|-3-----------3-----------|
|-----2-----2-----2-----2 / 3---------3-----3-----3-|-0---------0-----0-----0-|-0(2)--------0(2)--------|
|-------------0-----------|-----0-------0-----------|-----0-------0-----------|-------0-----------0-----|
|-------------------------|-------------------------|-------------------------|-------------------------|
|-0-----------------------|-------------------------|-------------------------|---------0-----------0---|
[ Tab from: http://www.guitartabs.cc/tabs/b/bruce_dickinson/strange_death_in_paradise_tab.html ]
2:47
|-----0-------------------|-------------------------|-------------------------|-------------------------|
|-------3-----------3-----|-------3-----------3-----|-3-----3---3-------3---3-|-3-----------3-----------|
|-----------2-----2-----2 / 3---------3-----3-----3-|-0---------0-----0-----0-|-0(2)--------0(2)--------|
|-------------0-----------|-----0-------0-----------|-----0-------0-----------|-------0-----------0-----|
|-------------------------|-------------------------|-------------------------|---------0---------------|
|-0-----------------------|-------------------------|-------------------------|-----------0---------0---|
|                                                                                                       |
|-------------------------|-------------------------|-------------------------|-------------------------|
|-5/7---------------------|-6-----------------------|-5-----------------------|-3-----------------------|
|-------------------------|-------------------------|-------------------------|-----------------------2-|
|-------------------------|-------------------------|-------------------------|-------------------------|
|-------------------------|-------------------------|-------------------------|-------------------------|
|-------------------------|-------------------------|-------------------------|-------------------------|

2:58
|-----0-------0-----------|-------------0-----------|-------------0-----------|-------------------------|
|-------3-----------3-----|-------3-----------3-----|-------3-----------3-----|-3---3-------3-----------|
|-----------2-----------2-|-3---------3-----------3-|-0---0-----0-------------|-0(2)--------0(2)--------|
|-----------------0-------|-0---0-----------0-------|-0-0-------------0-------|-------0-----------0-----|
|-------------------------|-------------------------|-------------------------|---------0-----------0---|
|-0-----------------------|-------------------------|-------------------------|-----------0-----------0-|
|                                                                                                       |
|-------------------------|-------------------------|-------------------------|-------------------------|
|-5/7---------------------|-6-------------------8/10|-8-------------------6/8-|-8/10--------------------|
|-------------------------|-------------------------|-------------------------|-------------------------|
|-------------------------|-------------------------|-------------------------|-------------------------|
|-------------------------|-------------------------|-------------------------|-------------------------|
|-------------------------|-------------------------|-------------------------|-------------------------|

3:09                                                                           (new guitar comes in)
|-------0-----1---1-0-----|-------0-----1---1-0-----|-------0-----1---1-0-----|---0---------------------|
|-3---3-----3-----------3-|-3---3-----3-3---------3-|-3---3-----3-----------3-|-3-----3-----------------|
|-2---------------------2-|-3---------3-3---------3-|-0-----------------------|-------------------------|
|-0-----------------------|-0-----------------------|-0-----------------------|-------------------------|
|-------------------------|-------------------------|-------------------------|-------------------------|
|-------------------------|-------------------------|-------------------------|-0-7---0-0-0-5/7---0-0-0-|
|                                                                                                       |
|-------------------------|-------------------------|-------------------------|-------------------------|
|/1010-/13--10101010-/1310|-1010-/13--101010-/13\10-|-1010-/13--101010-/13\10-|-1515--15----------------|
|-------------------------|-------------------------|-------------------------|-------------------------|
|-------------------------|-------------------------|-------------------------|-------------------------|
|-------------------------|-------------------------|-------------------------|-------------------------|
|-------------------------|-------------------------|-------------------------|-------------------------|
 (those are 10's and 13's...space restraints make this kind of messy...)

3:21
|-------0-----1---1-0-----|-------------------------|-------------------------|-------------------------|
|-------3-----3---3-3-----|-3-3---3-3-3-3-----3-3-3-|-3-----3-3---3---3---3---|-3-3---------3-3---------|
|-----2-----2-2---------2-|-3-3---3-3-3-3-----3-3-3\|-0-----0-0---0---0---0---|-0-2---------2-2---------|
|-0-----------0-----------|-0-0---0-0-0-0-----0-0-0-|-0-----0-0---0---0---0---|-0-0---------0-0---------|
|-0-----------------------|-------------------------|-------------------------|-0-----------------------|
|-0-----------------------|-------------------------|-------------------------|-0-----0-0-0-------0-0-0-|
|                                                                                                       |
|-------------------------|-------------------------|-------------------------|-------------------------|
|-15-(maintain throughout)|-------------------------|-------------------------|-------------------------|
|-------------------------|-------------------------|-------------------------|-------------------------|
|-------------------------|-------------------------|-------------------------|-------------------------|
|-------------------------|-------------------------|-------------------------|-------------------------|
|-------------------------|-------------------------|-------------------------|-------------------------|

              Strange       death...              in  par-...              -a- -dise...

3:31
|-------------------------|-------------------------|-------------------------|-------------------------|
|-3-----3---3-3-----------|-------------------------|-----8-8---------8-8-----|-3-3---------3-3---------|
|-2-----2---2-2-----------|-3---3-3-3---3---3-3-----|---------7-----7-----7---|-2-2---------0-2---------|
|-0-----0---0-0-----------|-0---0-0-0---0---0-0-----|-5---------0-5---------0-|-0-0---------0-0---------|
|-0-----0---0-0---0---0---|-1---1-1-1---1---1-1-0---|-5-----------5-----------|-0-0---------0-0---------|
|-0-----------------------|-------------------------|-5-----------------------|-------0-0-0-------0-0-0-|
|                                                                                                       |
|------(10)----------/13--|-10-----------------/13\-|-------------------------|-11^---12^---11^---12^---|
|-13(10)------------------|-------------------------|-------------------------|-------------------------|
|-------------------------|-------------------------|-------------------------|-------------------------|
|-------------------------|-------------------------|-------------------------|-------------------------|
|-------------------------|-------------------------|-------------------------|-------------------------|
|-------------------------|-------------------------|-------------------------|-------------------------|

              Strange       death...              in  par-...              -a- -dise...

3:42
|-------------------------|-------------------------|-------------------------|-------------------------|
|-------------------------|-------------------------|-------------------------|-------------------------|
|-------------------------|-3-3-3-3-3-3-3---3-------|-------------------------|-5/7---------5/7---------|
|-0---0-0-0-0-0-----------|-0-0-0-0-0-0-0---0-------|-5---5-5-5-5-5---5-------|-5/7---------5/7---------|
|-0---0-0-0-0-0---0---0---|-1-1-1-1-1-1-1---1---0---|-5---5-5-5-5-5---5-------|-3/5---------3/5---------|
|-0---0-0-0-0-0-----------|-------------------------|-5---5-5-5-5-5---5---3---|-------0-0-0-------0-0-0-|
|                                                                                                       |
|/5---5-------5-5-5-------|-6-6-6-5-----6-6-6-8\----|-8---8-------------------|-------------------------|
|/6---6-8---6-6-6-6-8---6-|-6-6-6-6---8-6-6-6-8\----|-10--9^----?-8-----------|-10----10----10----10----|
|/7---7-9---7-7-7-7-9---7-|-7-7-7-7---7-7-7-7-9\----|-------------------------|-10----10----10----10----|
|-------------------------|-------------------------|---------------------10--|---12----------12--------|
|-------------------------|-------------------------|-------------------------|-------------------------|
|-------------------------|-------------------------|-------------------------|-------------------------|

              Strange       death...              in  par-...              -a- -dise...

3:53
|-------------------------|-------------------------|-------------------------|-------------------------|
|-------------------------|-------------------------|-------------------------|-------------------------|
|-------------------------|-3-3-3-3-3-3-3---3-------|-------------------------|-5-7---------5-7---------|
|-0-----0---0-0-----------|-0-0-0-0-0-0-0---0-------|-5---5-5-5-5-5---5-------|-5-7---------5-7---------|
|-0-----0---0-0---0---0---|-1-1-1-1-1-1-1---1---0---|-5---5-5-5-5-5---5-------|-3-5---------3-5---------|
|-0-----0---0-0-----------|-------------------------|-5---5-5-5-5-5---5---3---|-------0-0-0-------0-0-0-|
|                                                                                                       |
|-------------------------|-------------------------|-------------------------|-------------------------|
|-----15--131515----------|{15}---------------------|-------------------------|-1010--1010--1010101110--|
|/1414--14----------------|-----12^(10)-10----------|-13^-13^-*---12----------|-1010--1010--1010101210--|
|-------------------------|-----------12--12--------|---------------------10--|-----12----12------------|
|-------------------------|-------------------------|-------------------------|-------------------------|
|-------------------------|-------------------------|-------------------------|-------------------------|
                                                      * = 12(13)(12)(10)
              Strange       death...              in  par-...              -a- -dise...

4:03
|-------------------------|-------------------------|-------------------------|-------------------------|
|-------------------------|-------------------------|-------------------------|-------------------------|
|-------------------------|-3-3---3-3-3-3---3-------|-------------------------|-5-7---------5-7---------|
|-0---0-0---0-0-----------|-0-0---0-0-0-0---0-------|-5---5-5-5-5-5---5-------|-5-7---------5-7---------|
|-0---0-0---0-0---0---0---|-1-1---1-1-1-1---1---0---|-5---5-5-5-5-5---5-------|-3-5---------3-5---------|
|-0---0-0---0-0-----------|-------------------------|-5---5-5-5-5-5---5---3---|-------0-0-0-------0-0-0-|
|                                                                                                       |
|-10--1010101010--10121210|-101010131310101010131310|-101010131310101010131310|-12121210----12121213----|
|-------------------------|-------------------------|-------------------------|-------------------------|
|-------------------------|-------------------------|-------------------------|-------------------------|
|-------------------------|-------------------------|-------------------------|-------------------------|
|-------------------------|-------------------------|-------------------------|-------------------------|
|-------------------------|-------------------------|-------------------------|-------------------------|

              Strange       death...              in  par-...              -a- -dise...

4:14
|-------------------------|-------------------------|-------------------------|-------------------------|
|-------------------------|-------------------------|-------------------------|-------------------------|
|-------------------------|-3-3-3-3-3-3-3---3-------|-------------------------|-------------------------|
|-0-----0---0-0-----------|-0-0-0-0-0-0-0---0-------|-5-----------------------|-------------------------|
|-0-----0---0-0---0---0---|-1-1-1-1-1-1-1---1---0---|-5-----------------------|-------------------------|
|-0-----0---0-0-----------|-------------------------|-5-----------------------|-------------------------|
|                                                    (let ring)                                         |
|-----20----20------------|-----20----20------------|-------------------------|-------------------------|
|-20^---20^---20^-20^-*---|-20^---20^---20^-20^-*---|-20^-(20)----------------|-----------------------\-|
|-------------------------|-------------------------|-------------------------|-------------------------|
|-------------------------|-------------------------|-------------------------|-------------------------|
|-------------------------|-------------------------|-------------------------|-------------------------|
|-------------------------|-------------------------|-------------------------|-------------------------|
                      * = 20(21)(20)(18)
              Strange       death...              in  paradise...

4:24
|-------0-----------0-----|---------0---------2-0---|-0-----------------------|-------------------------|
|-----3-----3-----------3-|-------3---3-------------|-3-----------------------|-------------------------|
|---2---------1-----------|-----2-------1-----------|-2-----------------------|-------------------------|
|-----------------0-------|---0-------------0-------|-0-----------------------|-------------------------|
|-------------------------|-------------------------|-0-----------------------|-------------------------|
|-0-----------------------|-0-----------------------|-0-----------------------|-------------------------|
(slow down to ~90 bpm)                               (let chord erode)
Comments