Bruce Dickinson - Starchildren Chords & Tabs

 

Starchildren Chords & Tabs

Bruce Dickinson Chords & Tabs

Version: 2 Type: Tab 0 ratings
1 star 2 stars 3 stars 4 stars 5 stars
comments

Starchildren Tab

Band - Bruce Dickinson
Album - Accident Of Birth
Song - StarChildren
Tabber - Chris Kahui

Played In Drop D

Intro - Both Guitars Play This 4 X

]------------------------------------[
]------------------------------------[
]------------------------------------[
]------------------------------------[
]--0-0-3-2-0-8------0-0-3-2-0-8-7-6--[
]--0-0-3-2-0-8------0-0-3-2-0-8-7-6--[

Both Guitars

]-----------------------------------------------[
]-----------------------------------------------[
]-----------------------------------------------[
]--5/7------------------------------------------[
]--3/5-0000-0000-0000-0000-0000-0000-0000-0000--[
]------0000-0000-0000-0000-0000-0000-0000-0000--[

       I came from nothing before nothing began.

Both Guitars

]------------------------------------------------------------[
]------------------------------------------------------------[
]------------------------------------------------------------[
]--5/7----5--5/7----10--9/5------5/7----5--5/7---------------[
]--3/5-00-3--3/5-00--8--7/3--00--3/5-00-3--3/5--0-3-5-6-5-3--[
]------00--------00----------00------00---------0-3-5-6-5-3--[

Both Guitars

]-----------------------------------------------[
]-----------------------------------------------[
]-----------------------------------------------[
]--5/7------------------------------------------[
]--3/5-0000-0000-0000-0000-0000-0000-0000-0000--[
]------0000-0000-0000-0000-0000-0000-0000-0000--[

 Broke the window of existence and became a man.

Both Guitars

]------------------------------------------------------------[
]------------------------------------------------------------[
]------------------------------------------------------------[
]--5/7----5--5/7----10--9/5------5/7----5--5/7---------------[
]--3/5-00-3--3/5-00--8--7/3--00--3/5-00-3--3/5--0-3-5-6-5-3--[
]------00--------00----------00------00---------0-3-5-6-5-3--[

Both Guitars
Slide into and out of the "7"

]----------------------------------------------[
]----------------------------------------------[
]----------------------------------------------[
]----------------------------------------------[
]--/7/-/7/--5-7-8--7/----/7/-/7/--3-2-0-2-3-5--[
]--/7/-/7/--5-7-8--7/----/7/-/7/--3-2-0-2-3-5--[

    No        sympathy     for      fools

Both Guitars

]----------------------------------------------[
]----------------------------------------------[
]----------------------------------------------[
]----------------------------------------------[
]--/7/-/7/--5-7-8--7/----/7/-/7/----3---0-3----[
]--/7/-/7/--5-7-8--7/----/7/-/7/----3---0-3----[

   My    star    is    black   and   burned

Both Guitars

]----------------------------------------------[
]----------------------------------------------[
]----------------------------------------------[
]----------------------------------------------[
]--/7/-/7/--5-7-8--7/----/7/-/7/--3-2-0-2-3-5--[
]--/7/-/7/--5-7-8--7/----/7/-/7/--3-2-0-2-3-5--[

    I    tilt    towards     the     light

Guitar 01

]------------------------------------------------------[
]------------------------------------------------------[
]------------------------------------------------------[
]------------------------8--7-5-7--5---5---------------[
]--/7/-/7/--5-7-8--7/----------------8----8-7-8-7-5-0--[
]--/7/-/7/--5-7-8--7/----------------------------------[

Guitar 02

]------------------------------------------------------[
]------------------------------------------------------[
]------------------------------------------------------[
]------------------------------------------------------[
]--/7/-/7/--5-7-8--7/----------------------------------[
]--/7/-/7/--5-7-8--7/----------------------------------[

  I  suck  your  soals  into  my   might   ,We    are

Both Guitars

]-------------------------------------------------------[
]-------------------------------------------------------[
]-----------------10--10--------------------------------[
]--7--------------10--10----7---------------------------[
]--5--0-3-0--3--------------5--0-3-0--3----0-3-5-6-5-3--[
]------------3------------------------3----0-3-5-6-5-3--[

  Starrrrrrrrrrrrrrrrrrr    Childrennnnnnnnnnnnnnnnnn

Both Guitars

]-------------------------------------------------------[
]-------------------------------------------------------[
]-----------------10--10--------------------------------[
]--7--------------10--10----7---------------------------[
]--5--0-3-0--3--------------5--0-3-0--3----5-6-5-6-5-3--[
]------------3------------------------3----5-6-5-6-5-3--[

  Coming  out  of  nowhere  and  to   nowhere   return

Both Guitars

]-------------------------------------------------------[
]-------------------------------------------------------[
]-----------------10--10--------------------------------[
]--7--------------10--10----7---------------------------[
]--5--0-3-0--3--------------5--0-3-0--3----0-3-5-6-5-3--[
]------------3------------------------3----0-3-5-6-5-3--[

  Starrrrrrrrrrrrrrrrrrr    Childrennnnnnnnnnnnnnnnnn

Both Guitars

]-------------------------------------------------------[
]-------------------------------------------------------[
]-----------------10--10--------------------------------[
]--7--------------10--10----7---------------------------[
]--5--0-3-0--3--------------5--0-3-0--3----5-6-5-6-5-3--[
]------------3------------------------3----5-6-5-6-5-3--[

   a hundred million souls sucked out in one breath

Both Guitars

]-----------------------------------------------[
]-----------------------------------------------[
]-----------------------------------------------[
]--5/7------------------------------------------[
]--3/5-0000-0000-0000-0000-0000-0000-0000-0000--[
]------0000-0000-0000-0000-0000-0000-0000-0000--[

  I shiver at the threshold of your waking hour

Both Guitars

]------------------------------------------------------------[
]------------------------------------------------------------[
]------------------------------------------------------------[
]--5/7----5--5/7----10--9/5------5/7----5--5/7---------------[
]--3/5-00-3--3/5-00--8--7/3--00--3/5-00-3--3/5--0-3-5-6-5-3--[
]------00--------00----------00------00---------0-3-5-6-5-3--[

Both Guitars

]-----------------------------------------------[
]-----------------------------------------------[
]-----------------------------------------------[
]--5/7------------------------------------------[
]--3/5-0000-0000-0000-0000-0000-0000-0000-0000--[
]------0000-0000-0000-0000-0000-0000-0000-0000--[

The knowledge that you seek is my source of power

Both Guitars

]------------------------------------------------------------[
]------------------------------------------------------------[
]------------------------------------------------------------[
]--5/7----5--5/7----10--9/5------5/7----5--5/7---------------[
]--3/5-00-3--3/5-00--8--7/3--00--3/5-00-3--3/5--0-3-5-6-5-3--[
]------00--------00----------00------00---------0-3-5-6-5-3--[

Both Guitars
Slide into and out of the "7"

]----------------------------------------------[
]----------------------------------------------[
]----------------------------------------------[
]----------------------------------------------[
]--/7/-/7/--5-7-8--7/----/7/-/7/--3-2-0-2-3-5--[
]--/7/-/7/--5-7-8--7/----/7/-/7/--3-2-0-2-3-5--[

    I    live    apart     from       you

Both Guitars

]----------------------------------------------[
]----------------------------------------------[
]----------------------------------------------[
]----------------------------------------------[
]--/7/-/7/--5-7-8--7/----/7/-/7/----3---0-3----[
]--/7/-/7/--5-7-8--7/----/7/-/7/----3---0-3----[

  But    I     know    the   things   you   do

Both Guitars

]----------------------------------------------[
]----------------------------------------------[
]----------------------------------------------[
]----------------------------------------------[
]--/7/-/7/--5-7-8--7/----/7/-/7/--3-2-0-2-3-5--[
]--/7/-/7/--5-7-8--7/----/7/-/7/--3-2-0-2-3-5--[

   No    angel    can    save   you   , how?

Guitar 01

]------------------------------------------------------[
]------------------------------------------------------[
]------------------------------------------------------[
]------------------------8--7-5-7--5---5---------------[
]--/7/-/7/--5-7-8--7/----------------8----8-7-8-7-5-0--[
]--/7/-/7/--5-7-8--7/----------------------------------[

Guitar 02

]------------------------------------------------------[
]------------------------------------------------------[
]------------------------------------------------------[
]------------------------------------------------------[
]--/7/-/7/--5-7-8--7/----------------------------------[
]--/7/-/7/--5-7-8--7/----------------------------------[

    You don't need a god 'cause I'm here now ,I am
[ Tab from: http://www.guitartabs.cc/tabs/b/bruce_dickinson/starchildren_tab_ver_2.html ]

Both Guitars

]-------------------------------------------------------[
]-------------------------------------------------------[
]-----------------10--10--------------------------------[
]--7--------------10--10----7---------------------------[
]--5--0-3-0--3--------------5--0-3-0--3----0-3-5-6-5-3--[
]------------3------------------------3----0-3-5-6-5-3--[

  Starrrrrrrrrrrrrrrrrrr    Childrennnnnnnnnnnnnnnnnn

Both Guitars

]-------------------------------------------------------[
]-------------------------------------------------------[
]-----------------10--10--------------------------------[
]--7--------------10--10----7---------------------------[
]--5--0-3-0--3--------------5--0-3-0--3----5-6-5-6-5-3--[
]------------3------------------------3----5-6-5-6-5-3--[

  Coming  out  of  nowhere  and  to   nowhere   return

Both Guitars

]-------------------------------------------------------[
]-------------------------------------------------------[
]-----------------10--10--------------------------------[
]--7--------------10--10----7---------------------------[
]--5--0-3-0--3--------------5--0-3-0--3----0-3-5-6-5-3--[
]------------3------------------------3----0-3-5-6-5-3--[

  Starrrrrrrrrrrrrrrrrrr    Childrennnnnnnnnnnnnnnnnn

Both Guitars

]-------------------------------------------------------[
]-------------------------------------------------------[
]-----------------10--10--------------------------------[
]--7--------------10--10----7---------------------------[
]--5--0-3-0--3--------------5--0-3-0--3----5-6-5-6-5-3--[
]------------3------------------------3----5-6-5-6-5-3--[

   a hundred million souls sucked out in one breath.

Both Guitars

]------------------------------------------------[
]------------------------------------------------[
]-------------------------------------5----------[
]-------------------------------------5----------[
]--1----3----5-------1----3----5------3----------[
]--1----3----5-------1----3----5------3----------[

  Do I fulfill  your deepest need for prophecy?

Both Guitars

]--------------------------------------------[
]--------------------------------------------[
]---------------------------------5----------[
]---------------------------------5----------[
]--1------3---5---1---3----5------3----------[
]--1------3---5---1---3----5------3----------[

 I am the ruler that you seek, so come to me

Both Guitars

]---------------------------[
]---------------------------[
]---------------------------[
]---------------------------[
]--5----4----3----2---------[
]---------------------------[

 Come   to   me.............

Guitar 01    X 4

]--------------------------------------------------------[
]--------------------------------------------------------[
]-----------------------X4-------------------------------[
]--------------------------------------------------------[
]---------------------------------------------------2-1--[
]--3-2-0-0--3-2-0-0--3-2-0-0--3-2-0-0--3-2-0-0--3-2------[

Guitar 02    X 4

]--------------------------------------------------------[
]--------------------------------------------------------[
]-----------------------X4-------------------------------[
]--------------------------------------------------------[
]--------------------------------------------------------[
]--3-2-0-0--3-2-0-0--3-2-0-0--3-2-0-0--3-2-0-0--3-2-8-7--[

Guitar 01 - Solo Rythm

]------------------------------------[
]------------------------------------[
]------------------------------------[
]------------------------------------[
]--0-0-3-2-0-8------0-0-3-2-0-8-7-6--[
]--0-0-3-2-0-8------0-0-3-2-0-8-7-6--[

]------------------------------------[
]------------------------------------[
]------------------------------------[
]------------------------------------[
]--0-0-3-2-0-8------0-0-3-2-0-8-7-6--[
]--0-0-3-2-0-8------0-0-3-2-0-8-7-6--[

]------------------------------------[
]------------------------------------[
]------------------------------------[
]------------------------------------[
]--0-0-3-2-0-8------0-0-3-2-0-8-7-6--[
]--0-0-3-2-0-8------0-0-3-2-0-8-7-6--[

]----------------------------------------------[
]----------------------------------------------[
]----------------------------------------------[
]-----------------8--7-5-7--5---5--------------[
]--0-0-3-2-0-8----------------8---8-7-8-7-5-0--[
]--0-0-3-2-0-8---------------------------------[

Guitar 02 - Solo

]----------------------------[
]----------------------------[
]----------------------------[
]-------?????????????--------[
]----------------------------[
]----------------------------[

Both Guitars

]-------------------------------------------------------[
]-------------------------------------------------------[
]-----------------10--10--------------------------------[
]--7--------------10--10----7---------------------------[
]--5--0-3-0--3--------------5--0-3-0--3----0-3-5-6-5-3--[
]------------3------------------------3----0-3-5-6-5-3--[

  Starrrrrrrrrrrrrrrrrrr    Childrennnnnnnnnnnnnnnnnn

Both Guitars

]-------------------------------------------------------[
]-------------------------------------------------------[
]-----------------10--10--------------------------------[
]--7--------------10--10----7---------------------------[
]--5--0-3-0--3--------------5--0-3-0--3----5-6-5-6-5-3--[
]------------3------------------------3----5-6-5-6-5-3--[

  Coming  out  of  nowhere  and  to   nowhere   return

Both Guitars

]-------------------------------------------------------[
]-------------------------------------------------------[
]-----------------10--10--------------------------------[
]--7--------------10--10----7---------------------------[
]--5--0-3-0--3--------------5--0-3-0--3----0-3-5-6-5-3--[
]------------3------------------------3----0-3-5-6-5-3--[

  Starrrrrrrrrrrrrrrrrrr    Childrennnnnnnnnnnnnnnnnn

Both Guitars

]-------------------------------------------------------[
]-------------------------------------------------------[
]-----------------10--10--------------------------------[
]--7--------------10--10----7---------------------------[
]--5--0-3-0--3--------------5--0-3-0--3----5-6-5-6-5-3--[
]------------3------------------------3----5-6-5-6-5-3--[

   a hundred million souls sucked out in one breath.

Both Guitars

]-------------------------------------------------------[
]-------------------------------------------------------[
]-----------------10--10--------------------------------[
]--7--------------10--10----7---------------------------[
]--5--0-3-0--3--------------5--0-3-0--3----0-3-5-6-5-3--[
]------------3------------------------3----0-3-5-6-5-3--[

  Starrrrrrrrrrrrrrrrrrr    Childrennnnnnnnnnnnnnnnnn

Both Guitars

]-------------------------------------------------------[
]-------------------------------------------------------[
]-----------------10--10--------------------------------[
]--7--------------10--10----7---------------------------[
]--5--0-3-0--3--------------5--0-3-0--3----5-6-5-6-5-3--[
]------------3------------------------3----5-6-5-6-5-3--[

   I'm the ruler of existence in your space and time

Both Guitars

]-------------------------------------------------------[
]-------------------------------------------------------[
]-----------------10--10--------------------------------[
]--7--------------10--10----7---------------------------[
]--5--0-3-0--3--------------5--0-3-0--3----0-3-5-6-5-3--[
]------------3------------------------3----0-3-5-6-5-3--[

  Starrrrrrrrrrrrrrrrrrr    Childrennnnnnnnnnnnnnnnnn

Both Guitars

]-------------------------------------------------------[
]-------------------------------------------------------[
]-----------------10--10--------------------------------[
]--7--------------10--10----7---------------------------[
]--5--0-3-0--3--------------5--0-3-0--3----5-6-5-6-5-3--[
]------------3------------------------3----5-6-5-6-5-3--[

   To  Penatrate   your   future  is  my  only  crime

]-------------------------------------------------------[
]-------------------------------------------------------[
]-------------------------------------------------------[
]-------------------------------------------------------[
]--0-0-2--0-3--0--5-5----0-0-2--0-3--0--6-5-------------[
]--0-0-2--0-3--0--5-5----0-0-2--0-3--0--6-5-------------[

  Starrrrrrrrrrrrrrrrrrrrrrrrrrrrrrrrrrrrrrrrrrrrrrrrrr

]-------------------------------------------------------[
]-------------------------------------------------------[
]-------------------------------------------------------[
]------------------------7777--7777/--------------------[
]--0-0-2--0-3--0--5-5----5555--5555/--------------------[
]--0-0-2--0-3--0--5-5-----------------------------------[

  rrrrrrrrrrrrrrrrrrrrr  ar     ar

The End

My E-mail is       ironmaiden1977@msn.com         for any comments
Comments