Bruce Dickinson - Silver Wings Chords & Tabs

 

Silver Wings Chords & Tabs

Bruce Dickinson Chords & Tabs

Version: 1 Type: Bass Tab 0 ratings
1 star 2 stars 3 stars 4 stars 5 stars
comments

Silver Wings Bass Tab

Bruce Dickenson
Silver Wings

  with distortion
|-------------------------------------------|-------------------------------------|
|-------------------------------------------|-2-2-2-2-2-2-2-5-5-4-0-2-2-2-2-2-2-2-|
|-----5----8----5----7----5----8----3-------|-------------------------------------|
|-0--------------------------------------0--|-------------------------------------|

-----------------------------------------------------------|
-5-4-2-7-5-4-2-2-2-2-2-2-2-5-5-4-0-2-2-2-2-2-2-------------|
-----------------------------------------------3-3-3-5-5-5-|
-----------------------------------------------------------|

-----------------------------------------------------------------------------------|
-2-2-2-2-2-2-2-5-5-4-0-2-2-2-2-2-2-2-5-4-2-7-5-4-2-2-2-2-2-2-2-5-5-4-0-2-2-2-2-2-2-|
-----------------------------------------------------------------------------------|
-----------------------------------------------------------------------------------|
             Verse 4x
--5----7---|---------------------------------------------------------------------|
----5----7-|--------------------------------------------------9-10-7-9----7------|
-3-----5---|-5h7-7-7-7-7-7-7-7-7-7-7-7-7-7-7-7-7-7-7-7-7-7-7-----------10---9-10-|
-----------|---------------------------------------------------------------------|

Pre-Chorus
|---------------------------------------------------------------------------------|
|------------------------------------7------5-------------------------------------|
|-2-2-2-2-2-2-2-3-5-2-2-2-2-2-2-2--5---5--3---3--2-2-2-2-2-2-2-3-5-2-2-2-2-2-2-2--|
|---------------------------------------------------------------------------------|
                  Chorus
----------------|-----------------------------------------------------------------|
---5-------7----|-2-2-2-2-2-2-2-2-2-2-2-0-5-5-5-5-5-5-0-4-0-4-4-5-4-0-2-2-2-2-2-2-|
-3---3-x-5---5--|-----------------------------------------------------------------|
----------------|-----------------------------------------------------------------|

-----------------------------------------------------------------------------------|
-2-2-2-2-2-----------------------------2-2-2-2-2-2-2-2-2-2-2-0-5-5-5-5-5-5-0-4-0-4-|
-----------3-3-3-3-3-3-3-5-5-5-5-5-5-5---------------------------------------------|
-----------------------------------------------------------------------------------|

----------------------------------------|-----------------------------------------|
-4-5-4-0-2-2-2-2-2-2-2-2-2-2-2-----5-4--|-2-2-2-2-2-2-2-5-5-4-0-2-2-2-2-2-2-2-5-4-|
-------------------------------3-5------|-----------------------------------------|
----------------------------------------|-----------------------------------------|

----------------------------------------------5------7---|
2-7-5-4-2-2-2-2-2-2-2-5-5-4-0-2-2-2-2-2-2-2-----5------7-|
---------------------------------------------3------5----|
---------------------------------------------------------|
Verse 4x
|---------------------------------------------------------------------|
|--------------------------------------------------9-10-7-9----7------|
|-5h7-7-7-7-7-7-7-7-7-7-7-7-7-7-7-7-7-7-7-7-7-7-7-----------10---9-10-|
|---------------------------------------------------------------------|

Pre-Chorus
|---------------------------------------------------------------------------------|
|------------------------------------7------5-------------------------------------|
|-2-2-2-2-2-2-2-3-5-2-2-2-2-2-2-2--5---5--3---3--2-2-2-2-2-2-2-3-5-2-2-2-2-2-2-2--|
|---------------------------------------------------------------------------------|
                  Chorus
----------------|-----------------------------------------------------------------|
---5-------7----|-2-2-2-2-2-2-2-2-2-2-2-0-5-5-5-5-5-5-0-4-0-4-4-5-4-0-2-2-2-2-2-2-|
-3---3-x-5---5--|-----------------------------------------------------------------|
----------------|-----------------------------------------------------------------|
[ Tab from: http://www.guitartabs.cc/tabs/b/bruce_dickinson/silver_wings_btab.html ]
-----------------------------------------------------------------------------------|
-2-2-2-2-2-----------------------------2-2-2-2-2-2-2-2-2-2-2-0-5-5-5-5-5-5-0-4-0-4-|
-----------3-3-3-3-3-3-3-5-5-5-5-5-5-5---------------------------------------------|
-----------------------------------------------------------------------------------|

----------------------------------------|
-4-5-4-0-2-2-2-2-2-2-2-2-2-2-2-----5-4--|
-------------------------------3-5------|
----------------------------------------|

Bridge 2x
|---------------------------------------------------------------------------------|
|---------------------------------------------------------------------------------|
|---------------------------------------------------------------------------------|
|-5-5-5-5-5-5-5-5-5-5-5-1-1-1-1-1-1-1-1-1-1-1-5-5-5-5-5-5-5-5-5-5-5-1-1-1-1-1-1-1-|

          Solo 2x
--------|-------------------------------------------------------------------------|
--------|-2-2-2-2-2-2-2-2-2-------------------------2-2-2-2-2-2-2-2-2-------------|
--------|-------------------2-3-3-3-3-3-3-3-3-3-3-3-------------------2-3-3-3-3-3-|
1-1-1-1-|-------------------------------------------------------------------------|

             Cont.solo 2x
-----------|-----------------------------------------------------------------------|
-----------|-------------------3-2---2-----3-2---2-------------------------3-2---2-|
3-3-3-3/10-|-2-2-3-00-2-2-3-00-----5---5-3-----5---5-3-2-2-2-3-00-2-2-3-00-----5---|
-----------|-----------------------------------------------------------------------|

-----------------------------------------------------------------------------------|
-----3-2---2-----------------------7-6---6-----7-6---6-----------------------------|
-5-3-----5---5-3-2-2-3-00-2-2-3-00-----9---9-7-----9---9-7-2-2-3-00-2-2-3-00-3-3-3-|
-----------------------------------------------------------------------------------|

-----------------------|
-----------------------|
-3-3-3-3-5-5-5-5-5-5-5-|
-----------------------|

Verse 4x
|---------------------------------------------------------------------|
|--------------------------------------------------9-10-7-9----7------|
|-5h7-7-7-7-7-7-7-7-7-7-7-7-7-7-7-7-7-7-7-7-7-7-7-----------10---9-10-|
|---------------------------------------------------------------------|

Pre-Chorus
|---------------------------------------------------------------------------------|
|------------------------------------7------5-------------------------------------|
|-2-2-2-2-2-2-2-3-5-2-2-2-2-2-2-2--5---5--3---3--2-2-2-2-2-2-2-3-5-2-2-2-2-2-2-2--|
|---------------------------------------------------------------------------------|
                  Chorus
----------------|-----------------------------------------------------------------|
---5-------7----|-2-2-2-2-2-2-2-2-2-2-2-0-5-5-5-5-5-5-0-4-0-4-4-5-4-0-2-2-2-2-2-2-|
-3---3-x-5---5--|-----------------------------------------------------------------|
----------------|-----------------------------------------------------------------|

-----------------------------------------------------------------------------------|
-2-2-2-2-2-----------------------------2-2-2-2-2-2-2-2-2-2-2-0-5-5-5-5-5-5-0-4-0-4-|
-----------3-3-3-3-3-3-3-5-5-5-5-5-5-5---------------------------------------------|
-----------------------------------------------------------------------------------|

-----------------------------------------------------------------------------------|
-4-5-4-0-2-2-2-2-2-2-2-2-2-2-2-----------------------------2-2-2-2-2-2-2-0-5-5-5-5-|
-------------------------------3-3-3-3-3-3-3-5-5-5-5-5-5-5-------------------------|
-----------------------------------------------------------------------------------|

-----------------------------------------------------------------------------------|
-5-5-0-4-0-4-4-5-4-0-2-2-2-2-2-2-2-2-2-2-2-----------------------------2-2-2-2-2-2-|
-------------------------------------------3-3-3-3-3-3-3-5-5-5-5-5-5-5-------------|
-----------------------------------------------------------------------------------|

---------------------------------------------------------------------------------|
-2-2-2-2-2-0-5-5-5-5-5-5-0-4-0-4-4-5-4-0-2-2-2-2-2-2-2-2-2-2-2-2-2-2---5---5-----|
-------------------------------------------------------------------------5---5---|
--------------------------------------------------------------------------------0|
Comments