Bruce Dickinson - Sacred Cowboys Chords & Tabs

 

Sacred Cowboys Chords & Tabs

Bruce Dickinson Chords & Tabs

Version: 1 Type: Tab 0 ratings
1 star 2 stars 3 stars 4 stars 5 stars
comments

Sacred Cowboys Tab

                               Sacred Cowboys                                                                               
                              ----------------
                             By Bruce Dickinsin
                           From "Balls To Picasso"
                    Tabbed By Amir "Holy Wars" Hershcoviz.
                            (ahershco@ort.org.il)

[ Tab from: http://www.guitartabs.cc/tabs/b/bruce_dickinson/sacred_cowboys_tab.html ]
   (1)                        The second time with this ...
E-|-------------------------|-------------------------------------------------|
B-|-------------------------|-------------------------------------------------|
G-|-------------------------|-------------------------------------------------|
D-|-------------------------|-10---9------------------------------------------|
A-|---7-7-7-7-5-5-7-7-8-7-5-|-8--s-7------------------------------------------|
E-|-0-----------------------|-------------------------------------------------|
                                                                               
                                                                          
E-|---------0--------------0--------------------------------------------------|
B-|-----------0--------------0------------------------------------------------|
G-|-------------3--------------3----------------------------------------------|
D-|-7-7--6----------7-7--6---------10-10--9----10-10--9-----------------------|
A-|-5-5--4----------5-5--4---------8--8---7----8--8---7-----------------------|
E-|---------------------------------------------------------------------------|
                                                                               
   Before The Chours :                                                      
E-|---------------------------------------------------------------------------|
B-|---------------------------------------------------------------------------|
G-|---------------------------------------------------------------------------|
D-|-5-7-7---3-5-5--2----------------------------------------------------------|
A-|-3-5-5---1-3-3--0----------------------------------------------------------|
E-|---------------------------------------------------------------------------|
                                                                               
                                                                               
   Chours :  (this riff's are used for solo rythem also!)
E-|---------------------------------------------------------------------------|
B-|---------------------------------------------------------------------------|
G-|---------------------------------------------------------------------------|
D-|-9------------------5------------------------------7-----------------------|
A-|-7------------------3---------------5--------------5-----------------------|
E-|------------------------------------3--------------------------------------|
                                                                               
                                                                               
E-|---------------------------------------------------------------------------|
B-|---------------------------------------------------------------------------|
G-|---------------------------------------------------------------------------|
D-|-9------------------5------------------------------------------------------|
A-|-7------------------3---------------5--------------9-----------------------|
E-|------------------------------------3--------------7-----------------------|
                                                                               
                                                                            
Made on the 04/06/97 .                                                                               
Note :
I've written only the rythem part (Was easy) ,
If someone want's to write the solo's , please do so!
I am making the tab for "Tears Of The Dragon" , It's a long one ,
And I'll post it as soon as I finish it.
Comments