Bruce Dickinson - Man Of Sorrows Chords & Tabs

 

Man Of Sorrows Chords & Tabs

Bruce Dickinson Chords & Tabs

Version: 1 Type: Bass Tab 0 ratings
1 star 2 stars 3 stars 4 stars 5 stars
comments

Man Of Sorrows Bass Tab

Bruce Dickenson
Man Of Sorrows

Fill 1
G---------------------------------------------------------|
D---0--0--0--0-----0--0--0--0-----0--0--0--0-----0--0--0--|
A---------------------------------------------------------|
E---------------------------------------------------------|
Tears, he will not cry

Chorus 1
G---------------------------------------------------|
D---------------------------------------------------|
A---5-----5--0-----0--3-----3--1---------1-1--3--5--|
E---------------------------------------------------|
Man of sorrows, I won't see your face

G------------------------------------------|
D------------------------------------------|
A---5-----5--0-----0--3-----3-----------5--|
E------------------------------3-----3-----|
Man of sorrows, you left without a trace

G---------------------------------------------------|
D---------------------------------------------------|
A---5-----5--0-----0--3-----3--1---------1-1--3--5--|
E---------------------------------------------------|
His small boy wonders, what was it all about

G------------------------------------------|
D------------------------------------------|
A---5-----5--0-----0--3-----3--------------|
E------------------------------3-----3--3--|
Is your journey over? Has it just begun?

Bridge 1
G-----------------------------------------------------------------------|
D-----------------------------------------------------------------------|
A---5-----5--5-----5-----5--5-----1-----3-----5-----3--3--3--3--3--3--3-|
E-----------------------------------------------------------------------|



Verse 2
G-----------------------------------------------------------------------|
D-----------------------------------------------------------------------|
A---5-----5--5-----5-----5-----3--5-----5-----5--5-----5-----5-----3--5-|
E-----------------------------------------------------------------------|
A vision of the new world...      Do what thou wilt...

G-----------------------------------------------------|
D-----------------------------------------------------|
A--5-----5-----5-----5--5-----3--5-----1-----3-----5--|
E-----------------------------------------------------|
A tortured seer...                Wondering Why...


Fill 2
G------------------------|
D------------------------|
A---5--5--5--5--5--5--5--|
E------------------------|


Chorus 2
G---------------------------------------------------|
D---------------------------------------------------|
A---5-----5--0-----0--3-----3--1---------1-1--3--5--|
E---------------------------------------------------|
Man of sorrows, I won't see your face
                                (see your face)


G---------------------------------------------|
D---------------------------------------------|
A---5-----5--0-----0--3-----3-----------3--5--|
E------------------------------3-----3--------|
Man of sorrows, you left without a trace

G---------------------------------------------------|
D---------------------------------------------------|
A---5-----5--0-----0--3-----3--1---------1-1--3--5--|
E---------------------------------------------------|
His small boy wonders, what was it all about

G------------------------------------|
D------------------------------------|
A---5-----5--0-----0--3-----3-----5--|
E------------------------------3-----|
Is your journey over? Has it just begun?


Interlude
G----------------------------|
D------------5h7--5h7--7-----|
A---5-----3---------------5--|
E----------------------------|


G-----------------------------------------------------------------------|
D------7-----7--7--7----------------------------------------------------|
A---3--------------------1-----1--3-----3--5-----3--3--3--3--3--3--3----|
E-----------------------------------------------------------------------|

Orchestral
                                 x2
G---------------------------------|--------------------|
D*-------------------------------*|--------------------|
A*-----5-----5--5--5-----3-------*|--1--------------5--|
E---------------------------3--5--|--------5--3--5-----|

Fill 3
G------------------------|
D------------------------|
A---3--3--3--3--3--3--3--|
E------------------------|

[ Tab from: http://www.guitartabs.cc/tabs/b/bruce_dickinson/man_of_sorrows_btab.html ]
Solo (same as Chorus 2)

G---------------------------------------------------|
D---------------------------------------------------|
A---5-----5--0-----0--3-----3--1----------1-1-3--5--|
E---------------------------------------------------|


G------------------------------------------|
D------------------------------------------|
A---5-----5--0-----0--3-----3-----------5--|
E------------------------------3-----3-----|


G---------------------------------------------------|
D---------------------------------------------------|
A---5-----5--0-----0--3-----3--1---------1-1--3--5--|
E---------------------------------------------------|


G---------------------------------|
D---------------------------------|
A---5-----5--0-----0--3-----3-----|
E------------------------------3--|

Bridge 2
G------------------------------------------------------------|
D------------5h7--5h7--5h7-----7-----7--7--7-----------------|
A---5-----3-----------------5-----------------1-----3-----5--|
E------------------------------------------------------------|

Fill 4
G------------------------|
D------------------------|
A---3--3--3--3--3--3--3--|
E------------------------|



Verse 3
G--------------|
D--------------|
A--5~----------|
E--------------|
A Man of sorrows, wrecked, with thoughts that dare not speak their name
Trapped inside a body, made to feel only guilt and shame


G-------------------------------------|
D-------------------------------------|
A-3--5-----5-----5--5-----5-----5--5--|
E-------------------------------------|
       His anger all his life...

G------------------------------------|
D------------------------------------|
A---3--5-----5-----1-----3-----3--5--|
E------------------------------------|
         Do what thou wilt...

Fill 5
G----------------------------------|
D----------------------------------|
A--5--5--5--5--5--5--5-------------|
E----------------------------------|


Chorus 3
G---------------------------------------------|
D*--------------------------------------------|
A*--5-----0-----3-----3--1-----1--1-----3--5--|
E---------------------------------------------|
(1st)Man of sorrows, I won't see your face
(2nd)His small boy wonders, "what was it all about?"

                                            2x
G-------------------------------------------|
D------------------------------------------*|
A---5-----0-----3-----3--------------3--5--*|
E------------------------3-----3--3---------|
(1st)Man of sorrows, you left without a trace
(2nd)Is your journey over? Has it Just begun?


G-----------------------------------------------------------------------|
D-----------------------------------------------------------------------|
A---5-----5--0-----0--3-----3--1-----1--1-----3--5----------------------|
E-----------------------------------------------------------------------|
Man of sorrows, I can't see your face

G------------------------------------------------|
D------------------------------------------------|
A---5-----5--0-----0--3-----3--------------3--5--|
E------------------------------3-----3--3--------|
Man of sorrows, you left without a trace

G------------------------------------------------------------------|
D------------------------------------------------------------------|
A---5-----5--5--5-----0-----0--3-----3-----3--1-----1--1-----3--5--|
E------------------------------------------------------------------|
His small boy wonders, "what was it all about?"

G----------------------------------------------------------|
D----------------------------------------------------------|
A---5-----5--5--5-----0-----0--3--3-----------------3--5---|
E------------------------------------3-----3--3--3---------|
Is your journey over? Has it just begun?


Outro 1
G------------------------------|-----------------------|
D------------------------------|-----------------------|
A------------------------------|-----------------------|
E---0--------8-----5--3--5-----|--0-----8-----5--3--5--|


Outro 2 (with piano)
G------------------|
D------------------|
A---1-----3-----5--|
E------------------|


----------|
----5h7---| Hammeron
----------|
----------|

------ Repeat
*----*
*----*
------
Comments