Bruce Dickinson - Killing Floor Chords & Tabs

 

Killing Floor Chords & Tabs

Bruce Dickinson Chords & Tabs

Version: 1 Type: Tab 0 ratings
1 star 2 stars 3 stars 4 stars 5 stars
comments

Killing Floor Tab

   
Bruce Dickenson
Killing Floor

Tune 1/2 step down!

Intro Riff (rythym guitar) :

Eb------------------------------------------------|
Bb------------------------------------------------|
Gb------------------------------------------------|
Db--9-----9--9------------------------------------|
Ab--7-----7--7----5-----7-----8-------------------|
Eb----0-0------0--3--0--5--0--6-------------------|
     p.m.

Intro Riff (Lead Guitar):

I�m not sure if this is keyboard or guitar with some
effects, but at least it�s aprox. It sounds better with
the chorus effect, so use it.

Eb------------------------------------------------|
Bb--5-----5-5--------0h3---0h5---0h6--------------|
Gb-----9-------9----------------------------------|
Db------------------------------------------------|
Ab------------------------------------------------|
Eb------------------------------------------------|


Bridge 1 :

Eb------------------------------------------------|
Bb------------------------------------------------|
Gb------------------------------------------------|
Db------------------------------------------------|
Ab---8-----7-----5-----2--------------------------|
Eb---6-----5-----3-----0--------------------------|


Chorus Riff (rythym guitar):

Eb------------------------------------------------|
Bb------------------------------------------------|
Gb------------------------------------------------|
Db----------------5-----------------5-5-5---------|
Ab--2-------2--5--3---2-------2--5--3-3-3---------|
Eb--0--0-0--0--3------0--0-0--0--3----------------|
      p.m.              p.m.


Chorus Riff (lead guitar) :

The same here I�m not sure if it�s keyb or guitar,
but here it is my way.

Eb------------------------------------------------|
Bb------------------------------------------------|
Gb---5p4----5p4----5-5p4--------------------------|
Db------------------------------------------------|
Ab------------------------------------------------|
Eb------------------------------------------------|


Verse Riff (rythym guitar):

Eb----------------------------------------------------|
Bb----------------------------------------------------|
Gb----------------------------------------------------|
Db----------------------------------------------------|
Ab--2-------2-----5-----7--2-------2-----5-----7-7-7--|
Eb--0--0-0--0--0--3--0--5--0--0-0--0--0--3--0--5-5-5--|
      p.m.   p.m   p.m       p.m.   p.m   p.m


Eb----------------------------------------------------|
Bb----------------------------------------------------|
Gb----------------------------------------------------|
Db----------------------------------------------------|
Ab--2-------2-----5-----7--2-------2-----5-----8-8-8--|
Eb--0--0-0--0--0--3--0--5--0--0-0--0--0--3--0--6-6-6--|
      p.m.   p.m   p.m       p.m.   p.m   p.m


Bridge 2:

Eb------------------------------------------------|
Bb------------------------------------------------|
Gb------------------------------------------------|
Db---9---8---7------------------------------------|
Ab---7---6---5------------------------------------|
Eb------------------------------------------------|

Pre-chorus Riff:

You can play this part with some distortion or with
full distortion. Play it �til you get to the chorus
Riff.

Eb------------------------------------------------|
Bb------------------------------------------------|
Gb------------------------------------------------|
Db--------2--------2--------2-------2--------2----|
Ab-----2--------2--------2--------2-------2-------|
Eb--0--------0--------0--------0-------0----------|


SOLO:


Eb------------------------------------------------|
Bb--15b**-----------------------------------------|
Gb--14b**------12h14-12*--------------------------|
Db------------------------/14b*14b*14b*14b*14b*---|
Ab------------------------------------------------|
Eb------------------------------------------------|


Eb----------------------------------------------------|
Bb----------------------------------------------------|
Gb---------------------------------------5--12h14-12--|
Db-14-12-14-12------------5h7p5-------5h7-------------|
Ab-------------14-12-10-7-------7--5h7----------------|
Eb----------------------------------------------------|


Eb------------------------------------------------|
Bb---22**------22p20---22**-----22*---22*---------|
Gb------------------------------------------------|
Db------------------------------------------------|
Ab------------------------------------------------|
Eb------------------------------------------------|

Eb------15-------------------15--------------------------|
Bb-22*-----15-17--17-15h17p15---15-17-15h17p15-----------|
Gb--------------------------------------------16-14------|
Db-------------------------------------------------17-14-|
Ab-------------------------------------------------------|
Eb-------------------------------------------------------|
      (..........this part play it fast...............)

[ Tab from: http://www.guitartabs.cc/tabs/b/bruce_dickinson/killing_floor_tab.html ]
Eb---------------------------------18-20p18----------|
Bb------------------------------------------19p17----|
Gb-------------------14----12*-------------------17*-|
Db12-14*-14-12----12----14---------------------------|
Ab-------------14------------------------------------|
Eb---------------------------------------------------|

Eb------------------------------------------------|
Bb----16-19-18----------------14-------18---------|
Gb-17----------17-16*---14-16----14-14----14-14---|
Db------------------------------------------------|
Ab------------------------------------------------|
Eb------------------------------------------------|
                                p.m. p.m. p.m.


Eb-------------------------------------------------|
Bb----------14-------------------------------------|
Gb-16-14-14----14--16p14-16-14---------------------|
Db-----------------------------17-14---------------|
Ab-----------------------------------15*-----------|
Eb-------------------------------------------------|
p.m. p.m. p.m. p.m.

Eb-------------------------------------------------|
Bb-------------------------------------------------|
Gb-------------------------------------------------|
Db-------------------------------------------------|
Ab-9-11-12-9-11-12-9-11-12-9-11-12-9-11-12-9-11-12-|
Eb-------------------------------------------------|
( ..................all this play it really fast

Eb-------------------------------------------------|
Bb-------------------------------------------------|
Gb-------------------------------------------------|
Db---------9-11-13-9-11-13-11-13-14-11-13-14-13-14-|
Ab-9-11-12-----------------------------------------|
Eb-------------------------------------------------|
...............................................


Eb------------------------------------17-----18-----|
Bb---------------------14-15-17-19*------19*----15*-|
Gb------------13-14-16------------------------------|
Db16-13-14-16---------------------------------------|
Ab--------------------------------------------------|
Eb--------------------------------------------------|
.................................)


Eb--21-21**------21-21-21-21-21-------------------|
Bb------------------------------------------------|
Gb------------------------------------------------|
Db------------------------------------------------|
Ab------------------------------------------------|
Eb------------------------------------------------|


Solo Riff:
This is the rythym guitar while the solo

the first two play them 4 times:

Eb------------------------------------------------|
Bb------------------------------------------------|
Gb------------------------------------------------|
Db------------------------------------------------|
Ab--8--7--5--2-2-2----5-7-7-7-5-2-----------------|
Eb--6--5--3--0-0-0----3-5-5-5-3-0-----------------|

Eb------------------------------------------------|
Bb------------------------------------------------|
Gb------------------------------------------------|
Db------------------------------------------------|
Ab--8--7--5--2-2-2----5-7-7-7---------------------|
Eb--6--5--3--0-0-0----3-5-5-5---------------------|


>From here play this two 4 times too:


Eb------------------------------------------------|
Bb------------------------------------------------|
Gb------------------------------------------------|
Db------------------------------------------------|
Ab--10-9--7--4-4-4----7-9-9-9-7-4-----------------|
Eb--8--7--5--2-2-2----5-7-7-7-5-2-----------------|

Eb------------------------------------------------|
Bb------------------------------------------------|
Gb------------------------------------------------|
Db------------------------------------------------|
Ab--10-9--7--4-4-4----7-9-9-9---------------------|
Eb--8--7--5--2-2-2----5-7-7-7---------------------|


Ending Riff (Rythym guitar):


Eb------------------------------------------------|
Bb------------------------------------------------|
Gb------------------------------------------------|
Db------------------------------------------------|
Ab--2----3-3-3-2----3-3-3-2----3-3-3-2----3-3-3---|
Eb--0----1-1-1-0----1-1-1-0----1-1-1-0----1-1-1---|
          p.m.       p.m.       p.m.       p.m.


Final Solo (Lead Guitar):

Eb-------------------------------------------------|
Bb--------------------------------------12*h15-----|
Gb-------12h14---14b(15)(14)*----14p12---------14--|
Db-12h14-------------------------------------------|
Ab-------------------------------------------------|
Eb-------------------------------------------------|

Eb----------12--------------------------------------|
Bb----12-15-----------------------------------------|
Gb-------------14b(15)(14)p12-----------------------|
Db----------------------------14---14-12-14---------|
Ab--------------------------------------------------|
Eb--------------------------------------------------|

Eb-------------------------------------------------|
Bb-------------------------------------------------|
Gb--14b(15)(14)p12---------------------------------|
Db-----------------14p12-12*---12-12-12*-----12-14-|
Ab----------------------------------------14-------|
Eb-------------------------------------------------|

Eb-------------------------------------------------|
Bb------------12--------12h15----------12h15-------|
Gb-12*h14--------14--------------------------------|
Db----------------------------14-------------14----|
Ab-------------------------------------------------|
Eb-------------------------------------------------|
Comments