Bruce Dickinson - Kill Devil Hill Chords & Tabs

 

Kill Devil Hill Chords & Tabs

Bruce Dickinson Chords & Tabs

Version: 1 Type: Tab 0 ratings
1 star 2 stars 3 stars 4 stars 5 stars
comments

Kill Devil Hill Tab

Artist: Bruce Dickinson
Song: "Kill Devil Hill" written by Bruce Dickinson & Roy Z
From the album "Tyranny Of Souls" (2005)
Tabbed by Nailed Reaper (reap@front.ru)

Very powerful and beautiful song with killing main riff and great chorus. One of the
best songs on the new album.

~ - vibrato
. - palm mute
\ - slide down

  Intro (clean)
e|-------------------6--5--------------5-----5-----------------|
B|-------5--6--------------------5--6----8-6---8-6-8-6-5-5-6-8-|
G|----7-----------7-----------7--------------------------------|
D|-------------------------------------------------------------|
A|-------------------------------------------------------------|
D|-0-----------0-----------0-----------------------------------|

  Main riff
e|-----------------------------------------------------------------------------------------------|
B|-----------------------------------------------------------------------------------------------|
G|-----------------------------------------------------------------------------------------------|
D|----------------------------------8-----7~-------------------------7------7--------------------|
A|-0-00-5-----7-----8~---0-00-5----------------0-00-5-----7-----8~-----10-8---10-8-10-8-7-7-8-10-|
D|-0-00---0-0---0-0------0-00---0-0---0-0------0-00---0-0---0-0----------------------------------|
   . ..   . .   . .      . ..   . .   . .      . ..   . .   . .      . .  . . .  . .  . . . . .
[ Tab from: http://www.guitartabs.cc/tabs/b/bruce_dickinson/kill_devil_hill_tab.html ]
  Bridge                                                                x2    1st ending      2nd ending
e|-------------------------------------------------------------------------|---------------|---------------|
B|-------------------------------------------------------------------------|---------------|---------------|
G|-------------------------------------------------------------------------|-12-12~-12-12~-|---------------|
D|-------------------------------------------------------------------------|-10-10~-10-10~-|---------------|
A|-7-77-7-----7-----7-----10----7-----8-----7-7-7-7-77-7-----8-----7-------|---------------|-10-10--10-10--|
D|-7-77-7-7-7-7-7-7-7-7-7-7-7-7-7-7-7-7-7-7-7-7-7-7-77-7-7-7-7-7-7-7-7-7-7-|---------------|-10-10--10-10--|
   . ..   . .   . .   . .   . .   . .   . .       . ..   . .   . .   . . .

  Chorus
e|--------------------|---------------------|--------------------|-------------------|
B|--------------------|---------------------|--------------------|-------------------|
G|-7--------5----3----|----------5----3--5--|-7--------5----3----|----------5--------|
D|-7--------5----3----|-3--------5----3--5--|-7--------5----3----|-3--------5--------|
A|-5--------3----1----|-3--------3----1--3--|-5--------3----1----|-3--------3--------|
D|-0------------------|-3-------------------|-0------------------|-3-----------------|

  Outro backing
e|---------------------------------------|
B|---------------------------------------|
G|-5--4----4--5--7----5--4----5--4-------|
D|----------------------------------7----|
A|---------------------------------------|
D|---------------------------------------|

  Outro lead
e|-------------------------------------------------------------------------------------------|
B|-------------------------------------------------------------------------------------------|
G|-------------------------------------------------------------------------------------------|
D|-\12--10-9-10--9-10-12~---10-9-10-9----------\12--10-9-10--9-10-12~---10-9-10-12-10~-------|
A|------------------------------------8~-----------------------------------------------------|
D|-------------------------------------------------------------------------------------------|

	Song structure:
Intro (x2)
Main riff (x4)
Bridge
Chorus (x2)
Main riff (x3)
Bridge
Chorus (x2)
Outro lead & backing (more and more until fading out)

Well that's "Kill Devil Hill". I'm not sure about the bridge and the last bar of
chorus, but it sound very close. So, if you find some errors - mail me.
Comments