Bruce Dickinson - Dive Dive Dive Chords & Tabs

 

Dive Dive Dive Chords & Tabs

Bruce Dickinson Chords & Tabs

Version: 1 Type: Tab 0 ratings
1 star 2 stars 3 stars 4 stars 5 stars
comments

Dive Dive Dive Tab

   
Bruce Dickenson
Dive Dive Dive

/\ :slides
fb :full bend
hb :half bend
qb :quarter bend
h. :harmonic
L :legato
~ :hold, vibrato
* :note, see the end for details


Riff1: Oohh...
1---------------------------------------------------------------------|
2-----------9--9-7--9-7--9-7--9-7--9--14-14--14-14--14-14--14-14--9\--|
3-----------9--9-7--9-7--9-7--9-7--9--14-14--14-14--14-14--14-14--9\--|
4-----------9--9-7--9-7--9-7--9-7--9--14-14--14-14--14-14--14-14--9\--|
5-----------7--7-------------------7----------------------------------|
6---(bass)------------------------------------------------------------|

Riff2: only bass

Riff3:
1---------------------------------------------------------------------|
2--------------9--7---------------------------------------------------|
3--------------9--7--------9-8--------9-8--------9-8--------9-8-------|
4--------------9--7-----9--9-9--7--9--9-9-----9--9-9--7--9--9-9-------|
5--------------7--5-----9-------7--9----------9-------7--9------------|
6--(bass)-------------7---------5--7--------7---------5--7------------|

Riff4: Ooh...(after the 1st strophe)
1---------------------------------------------------------------------|
2----9--7-7--7-7--9-----14-14---14-14--14-14--14-14----9\-------------|
3----9--7-7--7-7--9-----14-14---14-14--14-14--14-14----9\-------------|
4----9--7-7--7-7--9-----14-14---14-14--14-14--14-14----9\-------------|
5----7--5-5--5-5--7---------------------------------------------------|
6---------------------------------------------------------------------|

Riff5: pick hard and muffled
1---------------------------------------------------------------------|
2---------------------------------------------------------------------|
3---------------------------------------------------------------------|
4---------------------------------------------------------------------|
5---7-7--7-7--7-7--7--7-7--(repeat)-----------------------------------|
6---0-0--0-0--0-0--0--0-0---------------------------------------------|

Riff6: Dive!Dive!Dive!
1----------------0-------------2--------------------------------------|
2---7--2---------0-------------3--2-----------------------------------|
3---7--2---------1------(x3)---2--2-----------------------------------|
4---7--2---------2-------------0--2-----------------------------------|
5---5--0--------------------------0-----------------------------------|
6---------3hb--0---------------------3hb------------------------------|

Riff7:
1---------------------------------------------------------------------|
2---------------------------------------------------------------------|
3---------------------------------------------------------------------|
4--------2-------0----------------------------------------------------|
5----0-2-----0-2------0-2-4-----(repeat)------------------------------|
6--0-------0--------0-------------------------------------------------|

Riff8:
1---------------------------------------------------------------------|
2---------------------------------------------------------------------|
3---------2--------0--------------------------------------------------|
4-----0-2------0-2------0-2-4-----------------------------------------|
5---0--------0--------0-----------------------------------------------|
6---------------------------------------------------------------------|

Riff9: just before the solos
1---------------------------------------------------------------------|
2---9-----------------9---------\-------------------------------------|
3---9-----------------9---------\-------------------------------------|
4---9-----------------9---------\-------------------------------------|
5---7-----------------7---------\-------------------------------------|
6---------------------------------------------------------------------|

Riff10: background guitar uder the solo
1---------------------------------------------------------------------|
2---------------------------------------------------------------------|
3---------9-8--------9-8--------9-8--------9-8------------------------|
4------9--9-9--7--9--9-9-----9--9-9--7--9--9-9------------------------|
5------9-------7--9----------9-------7--9-----------------------------|
6----7---------5--7--------7---------5--7-----------------------------|

1---------------------------------------------------------------------|
2---------------------------------------------------------------------|
3---------9-7----------9-7--------------------------------------------|
4---------9-7----------9-7--------------------------------------------|
5------7------------7-------------------------------------------------|
6---0------------0----------------------------------------------------|
[ Tab from: http://www.guitartabs.cc/tabs/b/bruce_dickinson/dive_dive_dive_tab.html ]
Solo
1-------------------------------------------------7--------7----------|
2-----------------------------------------------7--------7----7-10fb--|
3---9fb-9fb-9fbh.-9fb-9fbh.-9fbbr-7---7~---9fb------9fb---------------|
4-----------------------------------9---------------------------------|
5-/-------------------------------------------------------------------|
6-/-------------------------------------------------------------------|

1----7----------------------------------------------------------------|
2------10-7----7----7-10-7----7---------------------------------------|
3-----------10---10--------10---10-9-7---7---7------------------------|
4--------------------------------------9---9---9-7---7~---------------|
5--------------------------------------------------9------------------|
6---------------------------------------------------------------------|

1---------------------------------------------------------------------|
2---------------------------------------------------------------------|
3----------7------------------------7---------------------------------|
4---9L(10)---10L9L7----------9L(10)---10L9L7--------------------------|
5-------------------10L(9)L7-----------------10L(9)L7-----------------|
6---------------------------------------------------------------------|
       *1
1---------------------------------------------------------------------|
2---------------------------------------------------------------------|
3----------7------------------------------------7---------------------|
4---9L(10)---10L9L7----------------------7L9L10---10L9--7L9L10--------|
5-------------------10L(9)L7--7L(9)L(10)------------------------------|
6---------------------------------------------------------------------|

1---------------------------------------------------------------------|
2---------------------------------------------------------------------|
3---8-9-8----8-------------7------------------------------------------|
4---------10---10-9-10-9-7---(10)-9-10L(9)L7-9----9L7----9L7----------|
5----------------------------------------------10-----10-----10-------|
6---------------------------------------------------------------------|
                                                         *2
1---------------------------------------------------------------------|
2----------------------12fb-12fb-12fb-12fb-12fbrb-10---10-12~---------|
3--------------9~~-----------------------------------9----------------|
4--7------------------------------------------------------------------|
5----9-10-7~~---------------------------------------------------------|
6---------------------------------------------------------------------|

1--------14------14-17-14----14----14-17-14----14----14-17-14---------|
2--17fb-----17fb----------17----17----------17----17------------------|
3---------------------------------------------------------------------|
4---------------------------------------------------------------------|
5---------------------------------------------------------------------|
6---------------------------------------------------------------------|

1------14----14-17-14----14----14-17-14----14----14-17-14----14-------|
2---17----17----------17----17----------17----17----------17----17----|
3---------------------------------------------------------------------|
4---------------------------------------------------------------------|
5---------------------------------------------------------------------|
6---------------------------------------------------------------------|

1----14-17-14----14----14-17~--17fb~-----------------------------------|
2-------------17----17-------------------------------------------------|
3----------------------------------------------------------------------|
4----------------------------------------------------------------------|
5----------------------------------------------------------------------|
6----------------------------------------------------------------------|

End:
1-----------------------------------------------------------------------|
2---7---2-------5hb~----------9--9--9--9\-------------------------------|
3---7---2---------------------9--9--9--9\-------------------------------|
4---7---2---------------------9--9--9--9\-------------------------------|
5---5---0---------------------7--7--7--7\-------------------------------|
6----------3hb----------------------------------------------------------|END.

Lick under riff5:
1----------------------------------------------------------------------|
2----------------------------------------------------------------------|
3------------0 h.-/-\-(with bar)---------------------------------------|
4----------------------------------------------------------------------|
5----7~~\--------------------------------------------------------------|
6----------------------------------------------------------------------|
Comments