Bruce Dickinson - Darkside Of Aquarius Chords & Tabs

 

Darkside Of Aquarius Chords & Tabs

Bruce Dickinson Chords & Tabs

Version: 1 Type: Bass Tab 0 ratings
1 star 2 stars 3 stars 4 stars 5 stars
comments

Darkside Of Aquarius Bass Tab

   
Bass Tab
Darkside Of Aquarius - Bruce Dickinson
Drop D

Tabbed by Isaac Stewart anthenisa@hotmail.com

INTRO (Comes out of taking the queen)

:--10-------10--9-----10--9--7------7--9--10--9--7-----:
:------0-----------0-------------0------------------0--:
:---------0--------------------------------------------:
:------------------------------------------------------:

Played twice before guitars come in

:--5-------7--9-----10--9--7------7--9--10--9--7-----:
:-----0----------0------------0-------------------0--:
:-------0--------------------------------------------:
:----------------------------------------------------:

Played twice with guitars

:--12------14--15-----17--15--14--12---14--12--10--12--10--9--:
:-----0------------0------------------------------------------:
:-------0-----------------------------------------------------:
:-------------------------------------------------------------:

:--10-------10--9-----10--9--7------7--9--10--9--7-----:
:------0-----------0-------------0------------------0--:
:---------0--------------------------------------------:
:------------------------------------------------------:


:--12------14--15-----17--15--14--12---14--12--10--12--10--9--:
:-----0------------0------------------------------------------:
:-------0-----------------------------------------------------:
:-------------------------------------------------------------:

:--10-------10--9-----10--9--7------7--9--10--9--7-----:
:------0-----------0-------------0------------------0--:
:---------0--------------------------------------------:
:------------------------------------------------------:

:--5-------7--9-----10--9--7-----7----7-----7-----7------7-----7-----7-----:
:-----0----------0------------0-----0-----0-----0-----0------0-----0-------:
:-------0------------------------------------------------------------------:
:--------------------------------------------------------------------------:

:----7-----7------7--:
:--0-----0------0----: <--------When first guitar comes in just play
:--------------------:          around the D shape patern.
:--------------------: 

:-------------:-------------:
:-------------:-------------:
:----5--3-----:-------------:
:-------------:----5---6----:

But when 2nd guitar and drums comes in play this twice.

:----------------------------:-----------------------------:
:----------------------------:-----------------------------:
:---------------------5--3---:-----------------------------:
:---0-0-0-0-0-0-0-0----------:---0-0-0-0-0-0-0-0---5---6---:

Played twice

VERSE (You should be able to sort out how the verse structure works)

:------------------------------------:------------------------------------:
:------------3-----------------5--3--:------------3-----------------------:
:--3--5-5-5-----5---3--5-5-5---------:--3--5-5-5-----5---3--5-5-5---------:
:------------------------------------:-----------------------------5--3---:

:------------------------------------:------------------------------------:
:------------3-----------------5--3--:------------3-----------------------:
:--3--5-5-5-----5---3--5-5-5---------:--3--5-5-5-----5---3--5-5-5---------:
:------------------------------------:-----------------------------5--3---:
    
:------------------------------------:-------------------------------:
:------------------------------------:-------------------------------:
:------------------------------------:-------------------------8--7--:
:--5--5-5--5--5-5--5--5-5--5--5-5--5-:-7-8--8-8--8--8-8--10-10-------:

CHORUS

:------------------------------------:------------------------------:
:------------------------------------:-------------------7H8-7------:
:--5--5-5--5--5-5--5--5-5--5--5-7--8-:--8--8-8--8--8-8---------8----:
:------------------------------------:------------------------------:

:------------------------------------:-------------------:
:------------------------9H10--9-----:--8-7------5-------:
:--10--10-10--10--10-10----------10--:------8-------8-7--:
:------------------------------------:-------------------:
Played twice first time.

Bridge before verse.

:------------------------------------:------------------------------------:
:------------3-----------------5--3--:------------3-----------------------:
:--3--5-5-5-----5---3--5-5-5---------:--3--5-5-5-----5---3--5-5-5---------:
:------------------------------------:-----------------------------5--3---:

:------------------------------------:----------------------------------:
:------------3-----------------5--3--:----------------------------------:
:--3--5-5-5-----5---3--5-5-5---------:--1--1-1--1--1-1--3--3-3--3--3-3--:
:------------------------------------:----------------------------------:.

VERSE (You should be able to sort out how the verse structure works)

:------------------------------------:------------------------------------:
:------------3-----------------5--3--:------------3-----------------------:
:--3--5-5-5-----5---3--5-5-5---------:--3--5-5-5-----5---3--5-5-5---------:
:------------------------------------:-----------------------------5--3---:

:------------------------------------:------------------------------------:
:------------3-----------------5--3--:------------3-----------------------:
:--3--5-5-5-----5---3--5-5-5---------:--3--5-5-5-----5---3--5-5-5---------:
:------------------------------------:-----------------------------5--3---:
    
:------------------------------------:-------------------------------:
:------------------------------------:-------------------------------:
:------------------------------------:-------------------------8--7--:
:--5--5-5--5--5-5--5--5-5--5--5-5--5-:-7-8--8-8--8--8-8--10-10-------:

CHORUS
[ Tab from: http://www.guitartabs.cc/tabs/b/bruce_dickinson/darkside_of_aquarius_btab.html ]
:------------------------------------:------------------------------:
:------------------------------------:-------------------7H8-7------:
:--5--5-5--5--5-5--5--5-5--5--5-7--8-:--8--8-8--8--8-8---------8----:
:------------------------------------:------------------------------:

:------------------------------------:-------------------:
:------------------------9H10--9-----:--8-7------5-------:
:--10--10-10--10--10-10----------10--:------8-------8-7--:
:------------------------------------:-------------------:
Played four times.

Interlude before solo:

:---------------------------------:
:---------------------------------:
:--5-5-5--5-5-5--5-5--5-5-5---3---:
:---------------------------------:

Played 4 times.
(watch for the rythm changes make sure you listen to the song when learning)

Gotta love these solo rythms!

H's Solo Rythm

:--------------------------------:----------------:
:--------------------------------:----------------:
:--------------------------------:----------------:
:--5-5--7---5-7--8---10--8-8--7--:--8--7--2-2--5--:

Play 2 times.

Roy Z Solo Rythm
:-------------------------------:-----------------:
:-------------------------------:-----------------:
:--3-3--5---3-5--6---9--6-6--5--:--6--5--------3--:
:-------------------------------:---------7-7-----:

Incredible bridge after solo!

:---------------------------------:
:---------------------------------:
:---------------------------------:
:--7-7-7--7-7-7--7-7-7---8--5-5---:

Played 3 times with drums.

:-----------------------:-------------------------------------:
:-----------------------:-------------------------------------:
:-----------------------:--8-7-5-4--7-5-4----5-------------5--:
:--7-7-7--7-7-7--7-7-7--:------------------8---8-7--5--8------:

Interlude

:--10-------10--9-----10--9--7------7--9--10--9--7-----:
:------0-----------0-------------0------------------0--:
:---------0--------------------------------------------:
:------------------------------------------------------:

Played twice before guitars come in

:--5-------7--9-----10--9--7------7--9--10--9--7-----:
:-----0----------0------------0-------------------0--:
:-------0--------------------------------------------:
:----------------------------------------------------:

Played twice with guitars

:--12------14--15-----17--15--14--12---14--12--10--12--10--9--:
:-----0------------0------------------------------------------:
:-------0-----------------------------------------------------:
:-------------------------------------------------------------:

:--10-------10--9-----10--9--7------7--9--10--9--7-----:
:------0-----------0-------------0------------------0--:
:---------0--------------------------------------------:
:------------------------------------------------------:


:--12------14--15-----17--15--14--12---14--12--10--12--10--9--:
:-----0------------0------------------------------------------:
:-------0-----------------------------------------------------:
:-------------------------------------------------------------:

:--10-------10--9-----10--9--7------7--9--10--9--7-----:
:------0-----------0-------------0------------------0--:
:---------0--------------------------------------------:
:------------------------------------------------------:

:--5-------7--9-----10--9--7-----7---:------7-----:
:-----0----------0------------0----0-:----0----0--:
:-------0----------------------------:-0----------:
:------------------------------------:------------:
                               This bar played 16 times before the next bar.

:------------------:------------------:------------------------------------:
:-------------7----:-------------7----:------------------------------------:
:-------------5----:-------------5----:----------------------1-1-1--3-3-3--:
:-------------0----:-------------0----:------------------------------------:
"gotta move"        "gotta move"       "gotta move that wheel right around!


:----------------------:----------------------:----------------------------:
:----------------------:----------------------:----------------------------:
:--5-3-5---------------:--5-3-5---------------:--5-3-5--5-3-5--5-3-5-------:
:---------0--0--0-0-0--:---------0--0--0-0-0--:-----------------------0--0-:
"gotta move"        "gotta move"       "gotta move that wheel right around!

:----------------------:----------------------:----------------------------:
:----------------------:----------------------:----------------------------:
:--5-3-5---------------:--5-3-5---------------:--5-3-5--5-3-5--5-3-5-------:
:---------0--0--0-0-0--:---------0--0--0-0-0--:-----------------------0--0-:
"gotta move"        "gotta move"       "gotta move that wheel right around!

:----------------------:----------------------:----------------------------:
:----------------------:----------------------:----------------------------:
:--5-3-5---------------:--5-3-5---------------:--5-3-5--5-3-5--5-3-5-------:
:---------0--0--0-0-0--:---------0--0--0-0-0--:-----------------------0--0-:
"gotta push   that wheel of damned around     gotta push that wheel  around!

Play 4 times

:------------------------------------:------------------------:-----------:
:------------------------------------:--3-0-------------------:--3-0------:
:-3-3--5--5-5--3-3--1--1-1--1--1-1---:-------3--3-3--3--3-3---:------5--5-:
:------------------------------------:------------------------:-----------:

Play 6 times.

:-------------------:--------------------:---------------------------------:
:-------------------:--------------------:---------------------------------:
:-5-3-5-------------:-5-3-5--------------:-5-3-5--5-3-5--5-3-5-------------:
:-------0--0--0-0-0-:-------0--0--0-0-0--:----------------------0--0--0--0-:

Play 4 times till faded out.
Comments