Bruce Dickinson - Accident Of Birth Chords & Tabs

 

Accident Of Birth Chords & Tabs

Bruce Dickinson Chords & Tabs

Version: 1 Type: Tab 0 ratings
1 star 2 stars 3 stars 4 stars 5 stars
comments

Accident Of Birth Tab

   
Bruce Dickenson
Accident Of Birth

Intro Riff (Repeat it)

E-----------------------------------------------|
B-----------------------------------------------|
G-----------------------------------------------|
D--7-7-7-7-7-7-7-7-7-7-7-7----------------------|
A--5-5-5-5-5-5-5-5-5-5-5-5-7-----8---8---8------|
E--------------------------5-x-x-6---6---6------|

  pm pm pm pm pm pm pm pm


Riff 1  (Repeat it along with the verse part)

This goes after "Break the shackless of
     your union to the light"

E-------------------------------------------------|
B-------------------------------------------------|
G-------------------------------------------------|
D-------7---5-----7-7-7-7-7-7-7-7-10-7--7-7-7-7-7-|
A-5h7h8------8-7--5-5-5-5-5-5-5-5-8--5--5-5-5-5-5-|
E-------------------------------------------------|

                  pm  pm  pm  pm        pm   pm

E-------------------------------------------------|
B-------------------------------------------------|
G-------------------------------------------------|
D-------5---------7-7-7-7-7-7-7-7-10-7--7-7-7-7-7-|
A-8p7p5--8-7-5----5-5-5-5-5-5-5-5-8--5--5-5-5-5-5-|
E--------------8----------------------------------|

                  pm  pm  pm  pm        pm   pm

Pre-Chorus Riff (play it only once)

E---------------------------------------------|
B---------------------------------------------|
G---------------------------------------------|
D--2-222-222-2----3-----2-222-222-2-----------|
A--0-000-000-0-5--1--5--0-000-000-0-5--3--5---|
E--------------3-----3--------------3--1--3---|


E---------------------------------------------|
B---------------------------------------------|
G---------------------------------------------|
D--2-222-222-2----3-----2-222-222-2--3--5--7--|
A--0-000-000-0-5--1--5--0-000-000-0--1--3--5--|
E--------------3-----3------------------------|


Chorus Riff (Only once.At the last chorus repeat
  it twice)

E-------------------------------------------------|
B-------------------------------------------------|
G-------------------------------------------------|
D-7------7------7------7------7------7--555--3--5-|
A-5--5-5-5--5-5-5--5-5-5--5-5-5--5-5-5--333--1--3-|
E-------------------------------------------------|

     pm     pm     pm     pm     pm

E------------------------------------------------|
B------------------------------------------------|
G------------------------------------------------|
D-7------7------7------7------7------7--555-3--7-|
A-5--5-5-5--5-5-5--5-5-5--5-5-5--5-5-5--333-1--5-|
E------------------------------------------------|

     pm     pm     pm     pm     pm

E-------------------------------------------------|
B-------------------------------------------------|
G-------------------------------------------------|
D-5------5------5------5------5------5--999--10-9-|
A-3--3-3-3--3-3-3--3-3-3--3-3-3--3-3-3--777--8--7-|
E-------------------------------------------------|

     pm     pm     pm     pm     pm

Then comes this solo:

Solo A:

The other guitar plays the intro part

E---------------------------------------------|
B--15*---15--17--18*--18/20--18--17--15*------|
G---------------------------------------------|
D---------------------------------------------|
A---------------------------------------------|
E---------------------------------------------|


E-----------------------------------------------------|
B--18----15-------------------------------------------|
G-----17----14-17----14-------------------------------|
D-----------------17----15-17----15--------------17---|
A-----------------------------17----15-17----15-------|
E-----------------------------------------17----------|

After playing for the second time the chorus play
this solo:

Solo B:

The other guitar plays the chorus riff this time

E---------------------------------------------|
B--15*---15--17--18*--18/20--18--17--15*------|
G---------------------------------------------|
D---------------------------------------------|
A---------------------------------------------|
E---------------------------------------------|

[ Tab from: http://www.guitartabs.cc/tabs/b/bruce_dickinson/accident_of_birth_tab.html ]
E---------------15/17-15--------------------15*-|
B--15--17--18*-----------18--17*----17--18------|
G-----------------------------------------------|
D-----------------------------------------------|
A-----------------------------------------------|
E-----------------------------------------------|


E--15--17--15-----------------------17-15-------|
B--------------18*----15--17--18*---------18-17-|
G-----------------------------------------------|
D-----------------------------------------------|
A-----------------------------------------------|
E-----------------------------------------------|


E---------------------------------------------|
B-15------------------------------------------|
G----17-15-14---------------------------------|
D---------------------------------------------|
A---------------------------------------------|
E---------------------------------------------|

SOLO:

E---------------------------------------------|
B--15h17*---15h17*----17-15-17-19-20-19-17-15-|
G---------------------------------------------|
D---------------------------------------------|
A---------------------------------------------|
E---------------------------------------------|


E-------------------------------------------------|
B-19-19*----19p17p15--17-17-17p15p14--15-14h15p14-|
G-------------------16--------------16------------|
D-------------------------------------------------|
A-------------------------------------------------|
E-------------------------------------------------|
              (this part play it fast  .......


E---------------------------------------------|
B---------------------------------------------|
G16p14----------------------------------------|
D-----16p14-12-12 12*---12p11--12p11--12p11---|
A---------------------------------------------|
E---------------------------------------------|
..here ends)

E---------------------------------------------|
B---------------------------------------------|
G----------7**------------------4(b)**--------|
D-12p11p10-------------5(b)**-----------------|
A---------------------------------------------|
E---------------------------------------------|


E--------------------------------------------------|
B----------------5(b)**----------------------------|
G----3(b)**-3(b)**---------------------------------|
D--------------------------------------------------|
A--------------------------------11-12-14-11-12-14-|
E--------------------------12-14-------------------|
                         (all of this I�m not

E----------------------------------------------|
B----------------------------------------------|
G----------------------------11-13-14-11-13-14-|
D----------11-12-14-11-12-14-------------------|
A-11-12-14-------------------------------------|
E----------------------------------------------|
sure, but it�s aprox. just play it very fast..

E----------------------------------------------|
B-12-14-15-17-15-12-14-15-17-15-14-12-14-15-17-|
G----------------------------------------------|
D----------------------------------------------|
A----------------------------------------------|
E----------------------------------------------|
...and with some palm muting.................

E---------------------------------------------|
B-15-14--17*----------------------------------|
G---------------------------------------------|
D---------------------------------------------|
A---------------------------------------------|
E---------------------------------------------|
....ends here)

Riffs 2:

The other guitar plays this along with this solo.
I figured out two ways to play it.
This is one way:

E------------------------------------------------------|
B------------------------------------------------------|
G------------------------------------------------------|
D------------------------------------------------------|
A-2-------2-------2---2-4-5--2-------2-------2---2-5-4-|
E-0--0-0--0--0-0--0-0-0-2-3--0--0-0--0--0-0--0-0-0-3-2-|
     pm      pm    pm            pm      pm    pm

This is the other way:(choose the one you like more)

Basically both are the same

E--------------------------------------------------------|
B--------------------------------------------------------|
G--------------------------------------------------------|
D-9-------9-------9---9-1112-9-------9-------9---9-12-11-|
A-7--7-7--7--7-7--7-7-7-9-10-7--7-7--7--7-7--7-7-7-10-9--|
E--------------------------------------------------------|
     pm      pm    pm           pm      pm    pm
Comments