Bruce Dickinson - Abduction Chords & Tabs

 

Abduction Chords & Tabs

Bruce Dickinson Chords & Tabs

Version: 1 Type: Tab 0 ratings
1 star 2 stars 3 stars 4 stars 5 stars
comments

Abduction Tab

   
-------------------------------------------------------------------------------
			     Abduction - Bruce Dickinson
-------------------------------------------------------------------------------
Tabbed by:madmurphy	
Email:s_murphy88@hotmail.com

Tuning:Drop D
Intro: 
e|-------------------------------------------------------------------------|
B|-------------------------------------------------------------------------|
G|-------------------------------------------------------------------------|
D|-------------------------------------------------------------------------|
A|----------8p7-----5h7-----3h5p3-2p3---------8p7-----5h7-----8p10---------|
D|-0-000-0------0-0-----0-0-----------0-000-0-----0-0-----0-0------8p10----|
[ Tab from: http://www.guitartabs.cc/tabs/b/bruce_dickinson/abduction_tab.html ]
e|-------------------------------------------------------------------------|
B|-------------------------------------------------------------------------|
G|-----------------------------------------------------------10------------|
D|-----------------------------------------------------------10------------|
A|----------8p7-----5h7-----3h5p3-2p3---------8p7-----5h7------8-----------|
D|-0-000-0------0-0-----0-0-----------0-000-0-----0-0-----0-0--------------|
Verse:
e|-------------------------------------------------------------------------|
B|-------------------------------------------------------------------------|
G|--------14-12-12-14------------------------------------------------------|
D|-0-------x--x--x--x---0------8-6-5-6-------------------------------------|
A|-0-x28--12-10-10-12---0-x28--8-6-5-6-------------------------------------|
D|-0--------------------0------8-6-5-6-------------------------------------|
Chorus:
e|-------------------------------------------------------------------------|
B|-------------------------------------------------------------------------|
G|-----------------------------7-------------5-----------------------------|
D|-0------8------3------5------7------8------5-----------------------------|
A|-0------8------3------5------5------8------3-----------------------------|
D|-0------8------3------5-------------8------------------------------------|
   
So basically thats all i got at the mo but since this is my first ever tab id say not bad. 
Obviously thers loads left of the song but this is basically a starting point for any1 who
wants to add to it.
any suggestions send to s_murphy88@hotmail.com


| /  slide up
| \  slide down
| h  hammer-on
| p  pull-off
| ~  vibrato
| +  harmonic
| x  Mute note
===============================================================================
Comments