Brownsville Station - Smoking In The Boys Room Chords & Tabs

 

Smoking In The Boys Room Chords & Tabs

Brownsville Station Chords & Tabs

Version: 2 Type: Tab 0 ratings
1 star 2 stars 3 stars 4 stars 5 stars
comments

Smoking In The Boys Room Tab

   
-------------------------------------------------------------------------------
               SMOKING IN THE BOYS ROOM - Brownsville Station
-------------------------------------------------------------------------------


Song: Smoking in the Boys Room
Artist: Brownsville Station
Tuning: Standard
Transcribed by: Chris Lambrecht (CJL170@aol.com)

Great song!

/ = Slide
~ = Let Ring
pm = Palm Mute


Intro (slight distortion):
E|------|
B|------|
G|------|
D|-6/7~-| (x11)
A|-4/5~-|
E|------|

Then play:
E|-----|
B|-----|
G|-----|
D|-7/9-|
A|-5/7-|
E|-----|

Verse (Distortion):
E|-----------------------------------------|
B|-----------------------------------------|
G|-----------------------------------------|
D|-6/7---6/7-------------------------------| (x2)
A|-4/5---4/5----7/6---7/6------------------|
E|--------------5/4---5/4------------------|
[ Tab from: http://www.guitartabs.cc/tabs/b/brownsville_station/smoking_in_the_boys_room_tab_ver_2.html ]
Pre-Chorus (Distortion. Not completely sure on this):
E|-------------------------|
B|-------------------------|
G|-------------------------|
D|--9--9--9--9--9--9--9--9-|
A|--7--7--7--7--7--7--7--7-|
E|-------------------------|

Chorus (Distortion)
E|----------------------|
B|----------------------|
G|----------------------|
D|----------------------| (x8)
A|--7-7-7-5----7-7-7-5--|
E|--5-5-5-3----5-5-5-3--|
pm  . . . .    . . . .

Chorus pt 2 (Distortion)
E|----------------------|
B|----------------------|
G|----------------------|
D|----------------------| (x6.5) 
A|--9-9-9-7----9-9-9-7--|
E|--7-7-7-5----7-7-7-5--|
pm  . . . .    . . . .

Riff 1 (Distortion):
E|------------|
B|------------|
G|------------|
D|-6/7---6/7--|
A|-4/5---4/5--|
E|------------|

Verse
Pre-Chorus
Chorus
Riff 1
Play Chorus Under Harmonica Solo
Verse
Pre-Chrorus
Chorus
Riff 1
Pre-Chorus
Chorus

Outro - 
This song is so old, the end is hard to hear
because the record is dying. So I can't tab
it, sorry.
Comments