Browne Jackson - The Times You've Come Chords & Tabs

 

The Times You've Come Chords & Tabs

Browne Jackson Chords & Tabs

Version: 1 Type: Tab 0 ratings
1 star 2 stars 3 stars 4 stars 5 stars
comments

The Times You've Come Tab

   
#----------------------------------PLEASE NOTE---------------------------------#
#This file is the author's own work and represents their interpretation of the #
#song. You may only use this file for private study, scholarship, or research. #
#------------------------------------------------------------------------------#


From: ejn521@aol.com (Ejn521)
Subject: TAB: Jackson Browne-"These Times You've Come"
Date: 25 Oct 1996 23:05:59 -0400


The Times You've Come (These Times You've Come)
by Jackson Browne

Chords Used:
        G    C    D7sus4    D7 G9 Em
E    --3-----0-----3-------------2----1----0-------------------
B    --0-----1-----1-------------1----0----0-------------------
G    --0-----0-----2-------------2----3----0-------------------
D    --0-----2-----0-------------0----0----2-------------------
A    --x-----3--------------------------x----2-----------------
E    --3---------------------------------3----0----------------


Intro:

E    -------3--2--------------3--2------------
B    --------------0-----------------0--------
G    ----0-----------0-----0-----------0------
D    -----------------------------------------
A    -----------------------------------------
E    --3-----------------3--------------------
[ Tab from: http://www.guitartabs.cc/tabs/b/browne_jackson/the_times_youve_come_tab.html ]
E    -------3--2----------0-------------------
B    --------------0-------1------------------
G    ----0-----------0----0-------------------
D    -----------------------2-----------------
A    -----------------------3-----------------
E    --3--------------------------------------

E    -------3--2--3--2--0---------------------
B    -------------------------3--3------3-----
G    ----0---------------------------0--------
D    -----------------------------------------
A    -----------------------------------------
E    --3----------------------3--3------------

E    --------3--2--3--2--0-------------0------
B    ---------------------------3--3------1---
G    -----0-------------------------------0---
D    --------------------------------------2--
A    --------------------------------------3--
E    --3------------------------3--3----------

First Verse

repeat intro

2nd Verse

Bridge:
C                         D7            D7sus4 G 
Everybody's gonna tell you it's not worth it
G9   C                        D7          D7sus4   Em
       Everybody's gotta show you their own pain
C                     D7sus4   D7            G  G9
You might try to find your way up around it
C                                        G  D7sus4
But the need for love will still remain

Last Verse

repeat intro
Comments