Browne Jackson - Tender Is The Night Chords & Tabs

 

Tender Is The Night Chords & Tabs

Browne Jackson Chords & Tabs

Version: 1 Type: Tab 0 ratings
1 star 2 stars 3 stars 4 stars 5 stars
comments

Tender Is The Night Tab

   
#----------------------------------PLEASE NOTE---------------------------------#
#This file is the author's own work and represents their interpretation of the #
#song. You may only use this file for private study, scholarship, or research. #
#------------------------------------------------------------------------------#
From: ejn521@aol.com
Subject: Tab Correction: "Tender is the Night"
Date: 10 Nov 1996 05:00:05 GMT

Tender is the Night
by Jackson Browne

Chords Used:

        G5   D5  E5    C5   
E    ----------------------------
B    ----------------------------
G    ---0------7----9------5----
D    ---5------7----9------5----
A    ---5------5----7------3----
E    ---3------------------------


        G   D  Em   C    G/D  
E    --3----2----0-----0-----3-----------
B    --0----3----0-----1-----3-----------
G    --0----2----0-----0-----4-----------
D    --0----0----2-----2-----5-----------
A    --------------2-----3-----5---------
E    --3----------0----------------------


Solo:
[ Tab from: http://www.guitartabs.cc/tabs/b/browne_jackson/tender_is_the_night_tab.html ]
E|---------------------------------------------------------------
B|------------------------3------------------------------3-------
G|--0h2--4-4---0--2------4---0--2-------4--0--2-----4--0--2------
D|-----------------------------------------0---------------------
A|---------------------------------------------------------------
E|---------------------------------------------------------------


E|----------------------------------------------------------------------
B|-------------3--------------3----------------------3------------------
G|--0h2--4-----0--2----4-----0--2-----0h2--4-----0--2--4----------------
D|----------------------------------------------------------------------
A|----------------------------------------------------------------------
E|----------------------------------------------------------------------


E   -----------------------------------------
B   --------0--------0--------0--------0-----
G   --0h2-----0h2-----0h2----0h2---Then right into C chord
D   -----------------------------------------
A   -----------------------------------------
E   -----------------------------------------



Comments