Browne Jackson - Something Fine Chords & Tabs

 

Something Fine Chords & Tabs

Browne Jackson Chords & Tabs

Version: 2 Type: Chords 0 ratings
1 star 2 stars 3 stars 4 stars 5 stars
comments

Something Fine Chords

   
#----------------------------------PLEASE NOTE---------------------------------#
#This file is the author's own work and represents their interpretation of the #
#song. You may only use this file for private study, scholarship, or research. #
#------------------------------------------------------------------------------#

Date: Fri, 17 Oct 1997 20:17:44 -0700
From: Maria Magisano 
To: guitar@olga.net
Subject: ADD:Jackson Browne-"Something Fine"

The original is fine, but to play along with the album you must tune 
down a 1/2 step.

So, the correct tuning is D# F# C# F# a# D#

Something Fine
by Jackson Browne

Tuning: Drop fifth string from A to G(EGDGBE)
Finger pick throughout.
[ Tab from: http://www.guitartabs.cc/tabs/b/browne_jackson/something_fine_crd_ver_2.html ]
Chords Used:
      G    G9   C/G    A7/G                                  
E ---3------1------0--------0-----                           
B ---0------0------1--------2-----                           
G ---4------2------0--------0-----                           
D ---0------0------2--------2-----                           
G ---0------0------0--------0-----                           
E -----------------------------------                           


Gmaj7  Em    G*      G**
-------------0------3------------
----3--------0------3--------0---
----0--------0------4--------0---
----4--------4------0--------0---
----0--------4------0--------0---
-------------0--------------------

Intro:

E ---------------------------------2---------------      
B --------------0--------------------3------------     
G ---2s4----------2--0------0------------2s4-    
D ---------0-------------2------------------------      
G ---0-----------------------------0------0------       
E -------------------------------------------------       


E  --------------------------------3---
B --3--0----0---------------------0---
G  --------------2---0------0-----4---
D  ----------------------2---------0---
G  --------------------------------0---
E  -------------------------------------
Comments