Browne Browne - The Pretender Chords & Tabs

 

The Pretender Chords & Tabs

Browne Browne Chords & Tabs

Version: 1 Type: Tab 0 ratings
1 star 2 stars 3 stars 4 stars 5 stars
comments

The Pretender Tab

   
#----------------------------------PLEASE NOTE---------------------------------#
#This file is the author's own work and represents their interpretation of the #
#song. You may only use this file for private study, scholarship, or research. #
#------------------------------------------------------------------------------#
From: ejn521@aol.com (Ejn521)
Subject: TAB:The Pretender-Jackson Browne
Date: 1 Nov 1996 00:50:25 -0500


The Pretender
by Browne Browne

Chords Used:

       G C/G   C    D G/B    Am7 Em  B7   A9  A9/G
E    -3----0-----0----2----3-------0------0-----2-----3------3----
B    -0----1-----1----3----3-------1------0-----4-----2------2----
G    -0----0-----0----2----0-------0------0-----2-----4------4----
D    -0----2-----2----0----0-------2------2-----4-----2------2----
A    -x----3-----3---------2-------0------2------2-----0------0----
E    -3----3------------------------------------------------------3
[ Tab from: http://www.guitartabs.cc/tabs/b/browne_browne/the_pretender_tab.html ]
        D/F#    G/D     D/C  D#o7
E    ---x---------3-------2--------2----------------------
B    ---3---------3-------3--------1----------------------
G    ---2---------0-------2--------2----------------------
D    ---x---------x-------x--------1----------------------
A    ---x---------5-------3-------------------------------
E    ----2------------------------------------------------



Intro Part 1:

E    -7---------7--------7h8---------------8-----------8----------8---
B    -8--8--------8------------7s8--10----8---8----------8------------ 
G    -7------7--------7----------------------9------9----------9------
D    -0---------0--------0------------------10---------10--------10---
A    -----------------------------------------------------------------
E    -----------------------------------------------------------------

E    --------8----------|------------------------------
B    -8---------8------|-------------------------------
G    ----9----------9--|---REPEAT----------------------
D    -------10---------|-------------------------------
A    -------------------|------------------------------
E    --------------------|-----------------------------

Intro Part 2:

E    -3--------------------------|--------------------
B    -3--0--1--0------0-------|-----------------------
G    -0--0--0--0---2--0--0--|-REPEAT------------------
D    -----0--2--0---2--0--2--|------------------------
A    -----------------3------3--|---------------------
E    -3----------------------3--|---------------------

Verse 1
Verse 2


*********************************************************


Comments