Brown Recluse - Who We Are Chords & Tabs

 

Who We Are Chords & Tabs

Brown Recluse Chords & Tabs

Version: 1 Type: Bass Tab 0 ratings
1 star 2 stars 3 stars 4 stars 5 stars
comments

Who We Are Bass Tab

Band:brown recluse
song:Who we are
Tabbed by:metalcools
E-mail him at (metalcools@yahoo.com)
      This is yet another brown recluse bass tab for one of there softer songs it is
a good song though.

\-slide down
/-slide up
normal tuning
   Figure 1 x 6
G|---------------------------------------------------------------
D|---------------------------------------------------------------
A|--9-9--0--3-2-3\5--5-5--0--5-4-5-------------------------------
E|---------------------------------------------------------------
[ Tab from: http://www.guitartabs.cc/tabs/b/brown_recluse/who_we_are_btab.html ]
   Figure 2 x 3
G|---------------------------------------------------------------
D|---------------------------------------------------------------
A|--5-5--7-7777/33333--------------------------------------------
E|---------------------5-5---------------------------------------

  figure 3 x 1
G|---------------------------------------------------------------
D|---------------------------------------------------------------
A|--5-5--7-7777/333333333333-------------------------------------
E|---------------------------------------------------------------

order
Figure 1x6 for the beggining then after that its 4 
Figure 2x3
Figure 3x1
Comments