Brown Recluse - Chris Houlihan Chords & Tabs

 

Chris Houlihan Chords & Tabs

Brown Recluse Chords & Tabs

Version: 1 Type: Bass Tab 0 ratings
1 star 2 stars 3 stars 4 stars 5 stars
comments

Chris Houlihan Bass Tab

Band:Brown Recluse
Song:Chris houlihan bass solo
tabbed by metalcools (metalcooled@yahoo.com)

    This is a good solo it is not hard at all to play but it sounds good.
Chris played this at Brown recluses first few gigs.
/-slide down
r-rest
~-let ring
Figure 1 play 4 times
G|-----5-----5-----7-----7---------------------------------------
D|--3-----3-----5-----5------------------------------------------
A|---------------------------------------------------------------
E|---------------------------------------------------------------

Figure 2 play 2 times
G|-----9-----9-----5-----5-----7-----7-----3-----3---------------
D|--7-----7-----3-----3-----5-----5-----1-----1------------------
A|---------------------------------------------------------------
E|---------------------------------------------------------------
[ Tab from: http://www.guitartabs.cc/tabs/b/brown_recluse/chris_houlihan_btab.html ]
Figure 1 play 4 times
G|-----5-----5-----7-----7---------------------------------------
D|--3-----3-----5-----5------------------------------------------
A|---------------------------------------------------------------
E|---------------------------------------------------------------

Figure 3 play 2 times
G|-----9-----9-----9-----9-----7-----7-----7-----7----7----7----7
D|--7-----7-----6-----6-----5-----5-----4-----4-----5----4----5--
A|---------------------------------------------------------------
E|---------------------------------------------------------------

G|----7----7----7----7-------------------------------------------
D|--4----5----4----5----5/7~-------------------------------------
A|---------------------------------------------------------------
E|---------------------------------------------------------------

Figure 4 play once
G|------7----9----11---r---9----7----5----3----------------------
D|----7----9----11---r---9----7----5----3------------------------
A|--5----7----9----r---7----5----3----1--------------------------
E|---------------------------------------------------------------
Comments