Brooks Garth - Two Pina Coladas Chords & Tabs

 

Two Pina Coladas Chords & Tabs

Brooks Garth Chords & Tabs

Version: 1 Type: Tab 0 ratings
1 star 2 stars 3 stars 4 stars 5 stars
comments

Two Pina Coladas Tab

   
Garth Brooks
Two Pina Coladas
Sevens

Okay.. The spots marked F: Don't press the strings down to the fret-board
Just hold your fingers gently over the strings to get a short dumb sound.
I've marked downstroke (d) and upstroke (u)

Capo III
[ Tab from: http://www.guitartabs.cc/tabs/b/brooks_garth/two_pina_coladas_tab.html ]
Intro (acoustic)
               F                      F        F    
e--------------1-1--1-1---------------1-1-1-1--1-1-1-1--
B--------------1----1-----------------1---1----1---1----
G--------------2----2-----------------2---2----2---2----
D----------3---3--------------3-5-3---3--------3--------
A-----0-3s5----------------3s5--------------------------
E--1s3-------1----------------------1-------------------
               d u  d U               d u d u  d u d u


Solo between chorus and second verse (el. no capo).

e---------------------------6s-8--8-6-5-5-6s-8--8--8--8--8-8--
B-------------------------6-8s10-10-8-6-6-8s10-10-10-10-10-8--
G--------------------3-5s7------------------------------------
D------------0------3-----------------------------------------
A-------0-1-3-3-1--5------------------------------------------
E-1--1-3----------6-------------------------------------------

                            2.verse   Oh now
e-6-6s-8------------------------------------
B-8-8s10-10s8-6-6h8p6-5---------------------
G----------------------7-5h7p5---5h7--------
D-----------------------------8-7-----------
A-------------------------------------3-0---
E----------------------------------------3--

Comments