Brooks Garth - Rodeo Chords & Tabs

 

Rodeo Chords & Tabs

Brooks Garth Chords & Tabs

Version: 1 Type: Tab 1 rating
1 star 2 stars 3 stars 4 stars 5 stars
comments

Rodeo Tab

   
Rodeo
By Garth Brooks


G     3554XX
A     5776XX
E5    022XXX

Piano intro for guitar
   G  A     E5
e:----------------------------------------------------------
B:-----------------------8----------------------------------
G:-4--6------7--9--9-----7—-9S7--9-------7-9--9----4--6-----
D:-5--7------7--9--9--------9S7--9-------7-9--9----5--7-----
A:----------------------------------------------------------
E:-3--5------0---------------------------0---------3--5-----

A     E5                                 A                      E5   G
HIS EYES WERE COLD AND RESTLESS, AND HIS WOUNDS HAVE ALMOST HEALED
    A                   E5              A                   E5 
AND SHE’D GIVE HALF OF TEXAS, JUST TO CHANGE THE WAY HE FEELS
                                              A 
WELL SHE KNOWS HIS LOVE’S IN TULSA, AND SHE KNOWS HE’S GONNA GO
        E5                                         B5         
WELL IT AIN’T KNOW WOMAN FLESH AND BLOOD, ITS THAT DAMN OLD RODEO

            E5                                              A                   E5
AW WELL ITS BULLS AND BLOOD, IT’S THE DUST AND MUD IT’S THE ROAR OF A SUNDAY CROWD.
                                                              B5              D5
ITS, THE WHITE IN THE KNUCKLES, THE GOLD IN THE BUCKLE, HE’LL WIN THE NEXT GO ROUND
         E5                                      A              E
IT’S THE BOOTS AND CHAPS, IT’S COWBAY HATS, IT’S SPURS AND LATIGO
                                                                      B5                     
IT’S THE ROPES AND THE REINS AND THE JOY AND THE PAIN, AND THEY CALL THE THING RODEO

A     E5                                A               E5    G  (Fill 1)
SHE DOES HER BEST TO HOLD HIM, WHEN HIS LOVE COMES TO CALL
    A                        E5           A                   E5 (Fill 2)
BUT HIS NEED FOR IT CONTROLS HIM, AND HER BACKS AGAINST THE WALL
                                                 A (Fill 3)
AND IT’S “SO LONG GIRL I’LL SEE YOU”, WHEN IT’S TIME FOR HIME TO GO
         E5            (Fill 5)              B5
YOU KNOW THE WOMAN WANTS HER COWBOY, LIKE HE WANTS HIS RODEO


            E5                                              A                   E5
AW WELL ITS BULLS AND BLOOD, IT’S THE DUST AND MUD IT’S THE ROAR OF A SUNDAY CROWD.
                                                              B5              D5
ITS, THE WHITE IN THE KNUCKLES, THE GOLD IN THE BUCKLE, HE’LL WIN THE NEXT GO ROUND
         E5                                      A              E
IT’S THE BOOTS AND CHAPS, IT’S COWBAY HATS, IT’S SPURS AND LATIGO
                                                                      B5                     
IT’S THE ROPES AND THE REINS AND THE JOY AND THE PAIN, AND THEY CALL THE THING RODEO


            E5                                              A                   E5
AW WELL ITS BULLS AND BLOOD, IT’S THE DUST AND MUD IT’S THE ROAR OF A SUNDAY CROWD.
                                                              B5              D5
ITS, THE WHITE IN THE KNUCKLES, THE GOLD IN THE BUCKLE, HE’LL WIN THE NEXT GO ROUND
         E5                                      A              E
IT’S THE BOOTS AND CHAPS, IT’S COWBAY HATS, IT’S SPURS AND LATIGO
                                                                      B5                     
IT’S THE ROPES AND THE REINS AND THE JOY AND THE PAIN, AND THEY CALL THE THING RODEO

[ Tab from: http://www.guitartabs.cc/tabs/b/brooks_garth/rodeo_tab.html ]
A       E5                        A               E5    G
IT’LL DRIVE A COWBOY CRAZY, IT’LL DRIVE A MAN INSANE
    A                            E5            A               E5
AND HE’LL SELL OFF EVERYTHING HE OWNS, JUST TO PAY TO PLAY THE GAME
      E5                                              A          E
AND A BROKEN HOME AND SOME BROKEN BONES, IS ALL HE’LL HAVE TO SHOW
                                                B5   
FOR ALL THE YEARS THAT SPENT CHASIN’ THIS DREAM THEY CALL RODEO



FILL 1                        FILL 2
e:--------0-----3B----0----   e:-7B-7B-7B-7B—7B--------------
B:-------------------------   B:-8B-8B-8B-8B-8B--9-----------
G:--2S4--------------------   G:-----------------9-----------
D:-------------------------   D:-----------------------------
A:-------------------------   A:-----------------------------
E:-------------------------   E:-----------------------------

FILL 3
e:----------0-------------------------
B:--3----5----------------------------
G:--4--3--------4--4------------------
D:--5-----------4--4------------------
A:--------------2--2—0H2-2-2-2-0------
E:--------------------------------3B--

FILL 4           FILL 5
e:-----12---7--  e:----------------------------------------
B:--12---------  B:----------------------------------------
G:-------------  G:----------------------------------------
D:-------------  D:-----------------------------0----------
A:-------------  A:--2---2---2---2---0---1---2-----2-------
E:-------------  E:-----------------------------------3----




CHORUS
  Aw,  well it’s bulls and blood  it’s the dust and mud
e:--------------------------------------------------------
B:--------------------------------------------------------
G:--------------------------------------------------------
D:--------------------------2-----------------------2-----
A:-2-0-------------------------------------2--5-----------
E:------3b-------0----------------------------------------


   It’s the roar of a Sunday crowd
e:----------------------------------------
B:---------------------------------12-12--
G:---------------------------------12-12--
D:---------------------2-----------12-12--
A:-0--------------------------------------
E:------------------------------0---------

   It’s the white in the knuckles, the gold in the buckels
e:--------------------------------------------------------
B:--------------------------------------------------------
G:--------------------------------------------------------
D:-----------------------2--------------------------------
A:------------------------------0---2----5----------2\----
E:-----------0--------------------------------------------

  He’ll win the next go round
e:-----------------------------
B:-----------------------------
G:------4--4-----4---4---------
D:------4--4-----4---4---7--7--
A:------2--2-----2---2---5--5--
E:-----------------------------

  It’s the boots and chaps, its cowboy hats, its spurs and latigo
e:-------------------------------------------------------------------0-------
B:-------------------------------------------------------------------0-------
G:---------------------------------------------------------2---------1-----1-
D:---------------------2-----------------------------------2---------2-----2-
A:-2--------------------------------5------7s5----0--0-----0-----------------
E:----3b----0-----0--------------7---------------------------------0---0-0---

  It’s the ropes and the reins and the joy and the pain, and they call the thing rodeo
e:------------------------------------------------------------------------------------------
B:--------------------------0--------------------------0------------------------------------
G:--------------------------1--------------------------1------------------------------------
D:--------------------------2--------------------------2--------------4---------------------
A:--------------------------------------------------------------------2----------2--0-------
E:------------0--------0--------------------0---0--0----------------------------------3b-0--
Comments