Brooks Garth - Friends In Low Places Chords & Tabs

 

Friends In Low Places Chords & Tabs

Brooks Garth Chords & Tabs

Version: 1 Type: Tab 0 ratings
1 star 2 stars 3 stars 4 stars 5 stars
comments

Friends In Low Places Tab

   
SONG: Friends In Low Places
ARTIST: Garth Brooks   
KEY: A Major
CHORDS USED
A	(x;0;2;2;2;0)
Bbdim7	(x;1;0;0;2;0)
Bm7	(x;2;4;2;3;5)
E(add9)	(0;2;2;1;0;2)
E	(0;2;2;1;0;0)
Bm7b5/D	(x;x;0;2;0;1)

NOTE: This is created from the sheet music book:Rockin' Down The Highway", and the piano is transcribed for guitar also...My email is schlnich@hotmail.com, if you have any questions.Have fun!!!!!!!!!!!!!


INTRO:Guitar One
  A             Bbdim7        Bm7               E(add9)
|-------------|-------0-0---|-------------5---|-----0-2-4---|
|-------2-2---|-----2-------|-------3-3-------|---0---------|
|-----2-------|---0---------|-----2-----2-----|-------------|
|---2---------|-------------|---4-------------|-2-----------|
|-0-----------|-1-----------|-2---------------|-------------|
|-------------|-------------|-----------------|-------------|

VERSE:Measure 5
            A Major              Bbdim7               Bm7
|           e                    e                    e
|   s   s   w   e e   s s q e    h.  e  e   e q   e   w e     e   e e   e           e e e e q.
|-------------------------------------------0-------------------------------------|----------|
|---0---0---2---2-2---2-0---2----2---3--2-----2-------0-0-----0---0-0---2---3-----|----------|
|-------------------------2------0------------------------------------------------|-------0--|
|-----------2-----------------------------------------0-----------------------4---|-2---0---0|
|-------------------------------------------------2-------------------------------|---3------|
|---------------------------------------------------------------------------------|----------|
  Blame it all on my roots. I showed up in boots and ruined your black tie affair.
|           q.        e   h      q.         e h       q.          e h               q.    e h
|---------------------------------------------------------------------------------|----------|
|---------------------------------------------------------------------------------|----------|
|-----------0---------0---0------1----------2-2-------2-----------2-2-------------|-2-----2-2|
|---------------------------------------------------------------------------------|----------|

      e                                                  A
|          e                     e          s                q         q               s
| e   e    q. e   e q   s   e    q.      e  h e.    s   s  e q.  e     h      q    q   w s q.q
|--------------------------------------------------------------------------------------------|
|----------0--0---0-2------------0--0----3--3-3-3---3---3--3-2---2-----2------3----2---2-0---|
|-----0----1--------1-------2----1----------1--------------1-------------------------------2-|
|------------------------------------------------------------2---------2---------------2-----|
|-2---------------------2--------------------------------------------------------------------|
|--------------------------------------------------------------------------------------------|
 The last one to know; the last one to show; I was the last one you thought you'd see there.
|     q.          e h       q.           e   h             q.    e     h               q. e q
|--------------------------------------------------------------------------------------------|
|-----0-----------0-0------------------------------------------------------------------------|
|----------------------------------------------------------0-----0-----0---------------0-----|
|---------------------------0------------0---0-----------------------------------------------|

                                   Bbdim7               Bm7                            Bm7b5/D
|         e                        e                    e
| s    e  h.  e   e s s q s    e   h.  e   e   e q  e   w  e   e   e  e  e    e s s     h.
|----------------------------------------------0-------------------------------------------|
|------0--2---2---2-2-0------------2---3---2-----2------0--0---0---0--0--2----0-3-2-----0--|
|-2---------------------2----------0-------------------------------------------------------|
|---------2---------------2----2--------------------2---0-------------------------------3--|
|------------------------------------------------------------------------------------------|
|------------------------------------------------------------------------------------------|
   And I saw the surprise and the fear in his eyes when I took his glass of champagne then,
| q       q.          e h          q.          e h      q.         e q       e    e   q.e h
|-------------------------------------------------------------------------------------------|
|-0-----------------------------------------------------------------------------------0-0-0-|
|---------0-----------0-0----------1-----------2-2------2----------2-2-------2----4---------|
|-------------------------------------------------------------------------------------------|

      e
|  e  e  e   e  e     e     e  e   e  e   e   e   q  s     e     e  e  e e e   e  q h.
|---------------------------------------------------------------------------------0-0----|
|----------------------------------0--0---0---3---3--------0-----0--0--0-0-2---0---------|
|---------------0--0---0-----0--0--0--0---0---0---0--------0-----0--0--0-0--------0-0----|
|--0--2--2---2--2--2---2-----2--2--------------------2-----------------------------------|
|----------------------------------------------------------------------------------------|
|----------------------------------------------------------------------------------------|
  And I toasted you, said, "Honey, we may be through but you'll never hear me complain."
|     q.        e  h               q.         e   h        q.          e h            q q q q
|--------------------------------------------------------------------------------------------|
|-----2---------2------------------2----------2------------2-----------2---------------------|
|------------------2------------------------------2----------------------2-------------------|
|-------------------------------------------------------------------------------------0-0-1-3|


CHORUS:Measure 21
         A                                                                                 Bm7
|                                  e
|  e     e    q   e  q   q   q.  e h e   e    e  e e e   e  q    e   e  e q  e e e  e    e q
|--------------------------------------------------------------------------------------------|
|--1-----2----0----------------------------------2-2-0---------------------------------------|
|-----------------2--2------------------------2-----------2--2-------------------------------|
|--------2----0----------4-------4-4-2---4-------2-2-0-----------4---2--2----4-4-2-----------|
|-----------------4--4---4---0---4-4----------------------4--4---4------4-0--4-4----4----4-3-|
|--------------------------------------------------------------------------------------------|
 'Cause I've got friends in low places where the whiskey drowns and the beer chases my blues 
|        q        e q    e e h     e e   e    e  q        e  q   e   e   h     e e  e    e q
|--------------------------------------------------------------------------------------------|
|--------------------------------------------------------------------------------------------|
|--------0-------------------0-------------------0-----------------------0---------------0-2-|
|-----------------2-0----0-2-------0-0---2----0-----------2--0---0---2---------0-0--2--------|
[ Tab from: http://www.guitartabs.cc/tabs/b/brooks_garth/friends_in_low_places_tab.html ]
                           A
|                                                                              e
| e e h           e    q   e  q e e q.h          q.    e   q  e q q   q  e   e h e    e   
|------------------------------------------------------------------------------------------|
|------------------------------------------------1-----2---0-------------------------------|
|-------------------------------------------------------------2-2--------------------------|
|-4-4------------------2--------4-4-2-2----------------2---0------4----------4-4-2----4----|
|-2-5-5-----------2-------------------------------------------4-4-4---0--0---4-4-----------|
|--------------------------0--0-----3-3----------------------------------------------------|
  away           and I'll be okay.              Yeah, I'm not big on social graces. Think 
|                          e
| e q  e e h e   e   e e   q. q e q e e q q q      q   q      e q e e h        e e    e
|------------------------------------------------------------------------------------------|
|--------------------------2--2-------2----------------------------------------------------|
|--0-----0-2-2---0--------------4-2-4------------------0--------------0--------------------|
|----2-2-------------2-1---0------------0-0-2------3----------2-0-0-2----------0-0----2----|

                                             Bm7          e               A
|                                            e
|  e     e  e e e q e   e  q e e e e    e e  w    q  e h q.    e  e e e e e e h e
|--------------------------2---0-0----------------------------------0-2---------0-|
|--------2--2-0------------2-2-2-2-2----0----0----2--2-0-0--------2-----2-2-0-----|
|--2------------2-2-2---2-----------------2--------------0--------------------2---|
|--------2--2-0------------------------------0-----------------0------------------|
|---------------4-4---------------------------------------------------------------|
|---------------------------------------------------------------------------------|
  I'll slip on down to the o - a - sis. Oh, I've got friends   in low   places.(To Coda*2nd Time
| e      q      e q e  e   w                 h       e e e e h    e e e e q   e q e e
|-------------------------------------------------------------------------------------|
|-------------------------------------------------------------------------------------|
|--------0-----------------0-----------------2-------2-2------------------0-----------|
|-0-------------2-0-0--2---------------------------------2-1-0----0-0-2-0-----2-0-0-2-|

After 1st Chorus:Measure 36
                                                                      Bm7
|                 e                                                                     
| e e e e e e e e q.e e e q q   q.e e q   e q q   s s e e e q q s s e e e h.    e e  
|-2-2-2-2-2-0-----------------------------------------------2-0---------------------|
|-2-2-2-2-2---2-0-2-2-0---------------------2-2---2-0---0-------2-0---0-2-0---------|
|-----------------------2-2-2-------------------------2---2---------2---------------|
|-----------------2-------------------0---0-2-2---2-----------------------0-----4-3-|
|-----------------------4-4-----0-2-4-----------------------------------------------|
|-----------------------------------------------------------------------------------|
| q   q   q   q   q     e q e e h   e e e e q   e q     e e h   e   e e e h e e e e
|-----------------------------------------------------------------------------------|
|-----------------------------------------------------------------------------------|
|-0---------------0-------------0-----------0---------------0-----------0-2-2-2-----|
|-----0---2---3---------2-0-0-2-----0-0-2-0-----2-0-----0-2-----0---0-2---------2-1-|

  e           A
|         e
| h.q     q e q.e e e e e h.
|---------------------------|
|---------------------------|
|---------------------------|(To Verse Two)
|-2-----------------2-------|
|---2-----4-2-0-0-4---4-2-0-|
|---3-----3-----------------|
| h   e e e e q e q   e e h.
|---------------------------|
|---------------------------|
|-------------0-----------0-|
|-0---0-0-2-0---2-0---0-2---|

(Back To Verse Two:Virtually same as verse one..)
(CHORUS):Then to the coda:

CODA:(Repeat 2x And Fade)Measure 45
| e                                           e
| h e e e e s s e e e     q   e q    q   q. e h e    e    e   e e e  e  q    e   e   e q
|-0-0-0-0-0-------0----------------------------------------------------------------------|
|-2-------2-3-2-3---2-----0-----------------------------------2-2-0----------------------|
|-----------------------------2--2------------------------2----------2--2----------------|
|-------------------2-----0----------4------4-4-2----4--------2-2-0----------4---2---2---|
|-----------------------------4--4---4---0--4-4----------------------4--4----4-------4-0-|
|----------------------------------------------------------------------------------------|
                    I've got friends in low places where the whiskey drowns and the beer 
| q   q   q     q   q         e  q   e e h    e e    e    e   q      e  q    e   e   h
|----------------------------------------------------------------------------------------|
|----------------------------------------------------------------------------------------|
|-0-----------------0--------------------0--------------------0----------------------0---|
|-----0---2-----3-------------2--0---0-2------0-0----2----0----------2--0----0---2-------|

               Bm7              e                                     A
| e e e  e   e q  e e h        e   q   e q  e e q.     h       q.    e   q  e q q    q  e     
|-----------------------------------------------------------------------------------------|
|--------------------------------------------------------------1-----2---0----------------|
|---------------------------------------------------------------------------2-2-----------|
|-4-4-2-------------4-4-------------2--------4-4-2-----2-------------2---0------4---------|
|-4-4----4---4-4--2-5-5---------2-------------------------------------------4-4-4----0--0-|
|-----------------------------------------0--0---3-----3----------------------------------|
  chases my blues away          and I'll be okay.            Yeah, I'm not big on   social 
|   e e  q     q    e q e e h e e   e e   q.   e q e e q q q     q  q       e q e e h
|-----------------------------------------------------------------------------------------|
|----------------------------------------------------2------------------------------------|
|--------0-----2----0-----0-2-2-0--------------4-2-4----------------0---------------0-----|
|---0-0---------------2-2-----------2-1---0------------0-0-2-----3----------2-0-0-2-------|

                                                           Bm7                 e
|    e                                                     e
| e  h e    e    e    e   e e e q e   e  q e e e e    e e  w    q   e  h       q.e  e e e
|----------------------------------------2---0-0--------------------------------------0-2-|
|---------------------2---2-0------------2-2-2-2-2----0----0----2---2--0-------0----2-----|
|----------------2------------2-2-2---2-----------------2----------------------0----0-----|
|-4--4------4---------2---2-0------------------------------0---------------------2--------|
|-4--4-2----------------------4-4---------------------------------------------------------|
|-----------------------------------------------------------------------------------------|
  graces. Think I'll slip on down to the o - a - sis. Oh, I've got friends       in low  
|    e e    e    e    q       e q e   e  h     e e    e e  h           e e e e h    e e e
|-----------------------------------------------------------------------------------------|
|-----------------------------------------------------------------------------------------|
|---------------------0------------------0--------------0--2-----------2-2----------------|
|----0-0----2----0------------2-0-0---2--------0-0----2--------------------2-1-0----0-0-2-|

    A
| e e e h.        q q q q  END: Measure 61
|--------------------------||
|-2-2-0--------------------||(Repeat And Fade)
|-------2---------2-----0--||
|-2-2---------------2-4----||
|-------4------------------||
|--------------------------||
  places.
| e e     e q e e q q q q
|--------------------------||
|--------------------------||
|---0-------------0--------||
|-0-------2-0-0-2---0-2-3--||

ORDER:
VERSE ONE:
Blame it all on my roots. I showed up in boots and ruined your black tie affair.
The last one to know; the last one to show; I was the last one you thought you'd see there.
And I saw the surprise and the fear in his eyes when I took his glass of champagne then,
And I toasted you, said, "Honey, we may be through but you'll never hear me complain."

CHORUS:
'Cause I've got friends in low places where the whiskey drowns and the beer chases 
My blues away and I'll be okay. Yeah, I'm not big on social graces. Think I'll slip on down to
the oasis. Oh, I've got friends in low places.

(After CHORUS)

VERSE TWO:
Well, I guess I was wrong. I just don't belong, but then I've been there before.
Everything's alright. I'll just say goodnight and I'll show myself to the door.
Hey, I didn't mean to cause a big scene just give me an hour and then,
well I'll be as high as that ivory tower that you're livin' in.

(CHORUS)

CODA:(Chorus Lyrics)
Comments