Brooks And Dunn - Red Dirt Road Chords & Tabs

 

Red Dirt Road Chords & Tabs

Brooks And Dunn Chords & Tabs

Version: 3 Type: Tab 0 ratings
1 star 2 stars 3 stars 4 stars 5 stars
comments

Red Dirt Road Tab

im not sure if this is the real solo or not 
but i remember this part from the song and 
i thought it sounded cool

[ Tab from: http://www.guitartabs.cc/tabs/b/brooks_and_dunn/red_dirt_road_tab_ver_3.html ]
e|-------------------------------|
B|-------------------------------|
G|-12\9-9-7h9p7---9-10-9-7-9-7---|
D|--------------9--------------9-|
A|-------------------------------|
E|-------------------------------|

e|------------------------------------------|
B|---------------10-10-10-10/13-13-13/15-13-|
G|-12\9-9-9/12-9----------------------------|
D|------------------------------------------|
A|------------------------------------------|
E|------------------------------------------|
Comments