Brooks And Dunn - Red Dirt Road Chords & Tabs

 

Red Dirt Road Chords & Tabs

Brooks And Dunn Chords & Tabs

Version: 2 Type: Tab 0 ratings
1 star 2 stars 3 stars 4 stars 5 stars
comments

Red Dirt Road Tab

wolfmag

Red Dirt Road Tab

Rhythm Guitar

  Intro
e------------------------------|
b------------------------------|
g---10--9--10--12--9--9--910--|    x4 (Intro)  Mandolin  kicks in after second beat
d------------------------------|
a------------------------------|
e------------------------------|
			     I  was      raised

e------------------------------|
b------------------------------|
g---10--9--10--12--9--9--910--|
d------------------------------|
a------------------------------|
e------------------------------|

     off      of     rural    route     three     Out     past
     where  the   black   top   ends,  We'd
     walk   to   church   on   Sunday   morning

e-----------------------------------------|
b-----------------------------------------|
g---109--10----10---10---10---12-12-12-9-|
d-----------------------------------------|
a-----------------------------------------|
e-----------------------------------------|
    And   race   barefoot   back   to   Johnson's   Fence

e------------------------------|
b------------------------------|
g---10--9--10--12--9--9--910--|
d------------------------------|
a------------------------------|
e------------------------------|

    That's   where   I   first   saw   Mary
    On   that   roadside,   pickin'   blackberries


e------------------------------|
b------------------------------|
g---10--9--109-9-10-----------|
d------------------------------|
a------------------------------|
e------------------------------|


   That   summer  I   turned   a   corner   in  my   soul

   Down that Red Dirt Road


Chorus

e------------------------------|
b------------------------------|
g-10-----9---------9----9---10-|
d------------------------------|
a------------------------------|
e------------------------------|
      10			     9
     It's where I drank my first beer
     9			     9
     It's where I found Jesus
    10
    Where I wrecked my first car

e------------------------------|
b------------------------------|
g-9-10-12-10-------------------|
d------------------------------|
a------------------------------|
e------------------------------|
 I tore it all to pieces

e------------------------------|
b------------------------------|
g-10-----9---------9----9---10-|
d------------------------------|
a------------------------------|
e------------------------------|
  10                                 9
  I  learned the path to heaven
  9                                   9
  Is full of sinners and believers
  10
  Learned that happiness on earth
[ Tab from: http://www.guitartabs.cc/tabs/b/brooks_and_dunn/red_dirt_road_tab_ver_2.html ]
e------------------------------|
b------------------------------|
g-9-10-12-10-------------------|
d------------------------------|
a------------------------------|
e------------------------------|

 ain't just for high achievers

e------------------------------|
b------------------------------|
g-10---9---10---12-------------|
d------------------------------|
a------------------------------|
e------------------------------|
 10
 I've learned - I've come
         9                     10
 to know There's life at both ends
    12
    Of that Red Dirt Road

Bridge
e---------------------------------|
b---------------------------------|
g---10--9--10--12--9--9--910-----|    x2
d---------------------------------|
a---------------------------------|
e---------------------------------|

                 		Her daddy didn't

Verse 2
e------------------------------|
b------------------------------|
g---10--9--10--12--9--9--910--|
d------------------------------|
a------------------------------|
e------------------------------|

    like me much

e----------------------------------|
b----------------------------------|
g---10--9--10--10--12--12109--10-|
d----------------------------------|
a----------------------------------|
e----------------------------------|

  In my shackled up GTO

e------------------------------|
b------------------------------|
g---10--9--10--12--9--9--910--|
d------------------------------|
a------------------------------|
e------------------------------|

   I'd sneak out in the middle of the night

e------------------------------|
b------------------------------|
g---10--9--10-12-121212--10--|
d------------------------------|
a------------------------------|
e------------------------------|

   Throw rocks at her bedroom window


e------------------------------|
b------------------------------|
g---10--9--10--12--9--9--910--|
d------------------------------|
a------------------------------|
e------------------------------|
		   (12)
                   We'd turn out the headlights

                   Drive by the moon light
        (10)
        Talk about what the future might hold

        Down that Red Dirt Road

CHORUS


e------------------------------|
b------------------------------|
g---1012-10910910--10-----|
d------------------------------|
a------------------------------|
e------------------------------|
       10	        12
       I went out into the world
               10                     9
       And I came back in
      10
       I lost Mary
        9                           10
       Oh, but I got her back again
      10                            9
       Drivin' home tonight
       10          9                 12
      felt like a long lost friend

Chorus
Comments