Brooker T And The Mgs - Green Onions Chords & Tabs

 

Green Onions Chords & Tabs

Brooker T And The Mgs Chords & Tabs

Version: 1 Type: Bass Tab 0 ratings
1 star 2 stars 3 stars 4 stars 5 stars
comments

Green Onions Bass Tab

the other tab was wrong but i managed to work it out from his

 G -----------------|    
 D --------3--------|X4  
 A -----------------|    
 E --1--1----4--6---|   

 G -------3---------|
 D -----------------|X2
 A --1--1----4--6---|
 E -----------------|
[ Tab from: http://www.guitartabs.cc/tabs/b/brooker_t_and_the_mgs/green_onions_btab.html ]
 G ------------------
 D -------3----------X2
 A ------------------
 E --1--1----4--6----

 G -----------------------3-------|
 D -------------------------------|X1
 A --3--3--6--8--6--1--1-----4--6-|
 E -------------------------------|

 G ------------------|
 D -------3----------|X2
 A ------------------|
 E --1--1----4--6----|

 i think this is right anyway, it fits the tune

 if u think different e-mail me billie_joe_2000@hotmail.com
Comments