Brooke Fraser - Arithmetic Chords & Tabs

 

Brooke Fraser Chords & Tabs

Version: 1 Type: Tab 0 ratings
1 star 2 stars 3 stars 4 stars 5 stars
comments

Arithmetic Tab

New Zealand artist, chick singer, 
hey, this is a tab that sounds like the piano part, its right. Standard E stuning on
your guitar! that part sounds really good to sing with your mates without enhanced
music, just the guitar. Cheers
 
                    INTRO

e -----------|------------|------------|------------|
b -----------|------------|------------|------------|
g --4-----4 -|------------|------------|------------|
d --4--------|-----6------|--4-----4---|-----2--2---|
a -----2-----|------6-----|--4---------|------2-----|
E -----------|--4-------4-|-----2------|--0---------|


[ Tab from: http://www.guitartabs.cc/tabs/b/brooke_fraser/arithmetic_tab.html ]
e -----------|------------|------------|------------|
b -----------|------------|------------|------------|
g --4-----4 -|------------|------------|------------|
d --4--------|-----6------|--4-----4---|--------6---|
a -----2-----|------6-----|--4---------|-----6------|
E -----------|--4-------4-|-----2------|--4---------|                 

                      VERSE

e -----------|------------|------------|------------|
b -----------|------------|------------|------------|
g --------4--|------------|------------|------------|
d -----4-----|-----6--6---|--------4---|-----2--2---|
a --2--------|-----6--6---|-----4------|-----2--2---|
E -----------|--4---------|--2---------|--0---------|


                      CHORUS

e -----------|------------|------------|------------|
b -----------|------------|------------|------------|
g -----------|------------|------------|------------|
d --2-----2--|--------4---|------------|------------|
a --2--2-----|-----4------|---------6--|------------|
E --0--------|/-2---------|/-4---------|------------|
Comments